Minutemen - Number One Hit Song tab

-------------------------------------------------------------------------------
			     number one hit song - minutemen
-------------------------------------------------------------------------------
Tabbed by: chris
Email:fattyfatfat4@hotmail.com

Tuning: standard

e|----------------------------------------------5-8--------8-10- 10b-10-8-------|
B|----------------------------------5-6-7-8-8-b-----8-8 / 10---------------10---|
G|-7b----5-h-7-p-5-----------5-6-7----------------------------------------------|
D|------------------7--5-6-7----------------------------------------------------|
A|------------------------------------------------------------------------------|
E|------------------------------------------------------------------------------|

e|---------------------------------------------------------------------------|
B|-----8h10p8----------------------------------------------------------------|
G|--------------9----------9-------7-----------------------------------------|
D|-----------------9-/-11----11-------5-4-------------------------5-4--------|
A|-----------------------------------------5-------5-7------5-7--------5-----|
E|--------------------------------------------5-7-------5-7------------------|

e|---------------------------------------------------------------------------|
B|--------------------------5-6-7---8-8b-------------------------------------|
G|------------------5-6-7----------------------------------------------------|
D|----------5-6-7------------------------------------------------------------|
A|---5-6-7-------------------------------------------------------------------|
E|---------------------------------------------------------------------------|

then it goes back to the main riff

I think this tab is quite accurate, probably a few mistakes.i didnt even try to 
work out the timing.

if anyone has any good minutemen tabs hit me up!

chris

************************************

| /   slide up
| \   slide down
| h   hammer-on
| p   pull-off
| ~   vibrato
| +   harmonic
| x   Mute note
| b   Bend
| pb  Pre-bend
| br  Bend release
| pbr Pre-bend release
| brb Bend release bend

************************************
Tap to rate this tab
 
# A B C D E F G H I J K L M N O P Q R S T U V W X Y Z