Song name
# A B C D E F G H I J K L M N O P Q R S T U V W X Y Z

Minutemen - Take Our Test tab

-----------------------------------------------------------------------------
                     Take Our Test - Minutemen
                        (Post-Mersh, Vol.2)
                             (1985)
-----------------------------------------------------------------------------
Tabbed by: Jose
Tuning: standard tuning EADGBE
 

~~Intro~~      (PM)           
e |-------------------|
b |-------------------|
g |-------------------|
d |-------------------|
a |-------------------|
E |----0-0-0-0-0-0----|


~~Verse~~
e |-----3-------------|
b |------3------------|
g |-------4-----------|   (x5)
d |-------------------|
a |-------------------|
e |-------------------|

e |-----0-------------|
b |------0------------|
g |-------0-----------|   (x5)
d |-------------------|
a |-------------------|
e |-------------------|

e |-----2-------------|
b |------3------------|
g |-------4-----------|   (x5)
d |-------------------|
a |-------------------|
e |-------------------|

Then something like this:
e |--12-10----10-12--14-|
b |--------12-----------|
g |---------------------|  
d |---------------------|
a |---------------------|
e |---------------------|


~~Bridge~~
Regular chords: G - D - Am - C - D  (repeat several times)

~~Chorus~~
e |-------3-----3------10------------5-----5------8------|
b |---------3-------------10-----------5------------8----|
g |---0/4-----4----4/11------11--3/5-----5----5/9-----9--|
d |------------------------------------------------------|
a |------------------------------------------------------|
e |------------------------------------------------------|
Tap to rate this tab
# A B C D E F G H I J K L M N O P Q R S T U V W X Y Z