Song name
# A B C D E F G H I J K L M N O P Q R S T U V W X Y Z

Minutemen - Nothing Indeed tab

-------------------------------------------------------------------------------
     NOTHING INDEED - Minutemen
-------------------------------------------------------------------------------
Tabbed by: Max van Ginneken
Hopefully I'll get around to tabbing all the Double Nickels songs that aren't accurately
on UG. I'm not very good, so it will take a while. First, this tab and Viet Nam. I'll also be
attempting guitar tabs of songs off of "Y" by the Pop Group. If you like the Minutemen, you
should check them out. Watt called them a major influence on the Minutemen, if that adds any
interest.

A few notes: I aim to make this a fairly accurate recreation of what D. plays on the studio
recording. Therefore, notes in parentheses are notes which I would assume would normally be
played, due to similar note patterns elsewhere in the piece, but D. does not play on the
recording. I don't know if these discrepancies is intentional or unintentional, but I decided to
include these notes anyways. There are also a few other discrepancies that I did not mark for the
sake of space.

At the end of the "chorus" before the "bridge", D. slides up the neck instead of down. The bridge
is done much in the same style as the chorus, although here I have mostly only tabbed the notes
D. plays on the recording.

Tuning: E standard

Intro/Verse
e|------------|
B|------------|
G|------------|
D|3-2-3-2-3-2-|
A|1-0-1-0-1-0-|
E|------------|

Chorus     let ring--------------|       let ring--------------|  sometimes ends
e|------7-7---------7-7-7---4---4\--------7-7---------7---7---4---4\-| 4-4-4-4\-|
B|5-x-x-7-7-5-4-4-4-------4---4-----5-x-x-7-7-5-4-4-4---4---4---4----| 4-4-4-4\-|
G|4-x-x-6-6-------------------------4-x-x-6-6------------------------|
D|-------------------------------------------------------------------|
A|-------------------------------------------------------------------|
E|-------------------------------------------------------------------|

Bridge       let ring--------------------------------|
e|---------14-(14)-------11----11-14-14----11----11\-|
B|12-(x)-x-14--13-----11-11-11----11----11----11-----|
G|11-(x)-x-13-(13)-14--------------------------------|
D|---------------------------------------------------|
A|---------------------------------------------------|
E|---------------------------------------------------|

      let ring---------------------------------------
e|---------14--14-------11----14----14----11----11--|
B|12-(x)-x-14--13--x-11-11-11----11----11----11-----|
G|11-(x)-x-13--13-----------------------------------|
D|--------------------------------------------------|
A|--------------------------------------------------|
E|--------------------------------------------------|

 -----------------------------| let ring----------------|
e|11-------14-14-14----11----14---9-9-12-12-12---9---12-|
B|11-11-11----------11----11----9--------------9---9----|
G|------------------------------------------------------|
D|------------------------------------------------------|
A|------------------------------------------------------|
E|------------------------------------------------------|

  let ring--------------| let ring------------|
e|--7---10-10-10---7---10---6---9---9---6---9-|
B|7---7----------7---7----6---6-6-6-6-6-6-6-6-|
G|--------------------------------------------|
D|--------------------------------------------|
A|--------------------------------------------|
E|--------------------------------------------|

End                     A rings
e|-----------------------------------|
B|-----------------------------------|
G|-----------------------------------|
D|3-2-3-2-3-2-3-2-3-2-3-2-2~---------|
A|1-0-1-0-1-0-1-0-1-0-0-1--------1-0-|
E|-----------------------------------|



************************************

| /   slide up
| \   slide down
| h   hammer-on
| p   pull-off
| ~   vibrato
| +   harmonic
| x   Mute note
| b   Bend
| pb  Pre-bend
| br  Bend release
| pbr Pre-bend release
| brb Bend release bend

************************************
Tap to rate this tab
 
# A B C D E F G H I J K L M N O P Q R S T U V W X Y Z