Song name
# A B C D E F G H I J K L M N O P Q R S T U V W X Y Z

Minutemen - Party With Me Punker tab

Help us improve GuitareTab! Take a short survey!
Party With Me Punker - Minutemen

Opening riff:

E--------------------|
B-----------10-------|
G--9-x9-x9------9----|
D--9-x9-x9--------7--|
A--7-x7-x7-----------|
E--------------------| x2

continue with:

E--------------------|
B--------------------|
G--9-x9-x9-----------|
D--9-x9-x9-----------|
A--7-x7-x7-----------|
E--------------------|

verse:

E-----------------|
B-----------------|
G--9-9-9-9-9-9----|
D--9-9-9-9-9-9----|
A--7-7-7-7-7-7----|..
E-----------------|
PM----------------|

solo:

E--------------------------------------------|
B--15~-15~-15~~-15~15~15~-15~15~15~15~-------|
G--------------------------------------14~~--|
D--------------------------------------------|
A--------------------------------------------|
E--------------------------------------------|

continue some more with verse riff and this riff:

E--------------------|
B--------------------|
G--9-x9-x9-----------|
D--9-x9-x9-----------|
A--7-x7-x7-----------|
E--------------------|

end on:

E--------------------|
B--------------------|
G--9--9--9~----------|
D--9--9--9~----------|
A--7--7--7~----------|
E--------------------|

because I'm in a good mood, I'll tab out the simple ass bass part:

G--------------------|
D--------------------|
A--7-7-7-----5-4-5---|
E----------5---------|
repeat throughout entire song

enjoy! also... questions? comments? simple adoration of my greatness?
e-mail me at pape114@whoever.com.
Related for Party With Me Punker tab