Song name
# A B C D E F G H I J K L M N O P Q R S T U V W X Y Z

Minutemen - Cheerleaders tab

Band: Minutemen
Song: The Cheerleaders


tabbed by jam9383@yahoo.com


Verse

x2                                     x2
e-----7--x--7--7--7--7---x-x--7---|---6-------------------------------|
B-----7--x--7--7--7--7---x-x--7---|---6-------------------------------|
G--7--7--x--7--7--7--7---x-x--7---|---6-------------------------------|
D--6--6--x--6--6-----6---x-x--6---|---5-------------------------------|
A--7--7--x--7--------7---x-x--7---|---6-------------------------------|
E---------------------------------|-----------------------------------|

Bridge

e--8--8--x--x--x--x--x--x--11---11------------------------------------|
B--8--8--x--x--x--x--x--x--11---11------------------------------------|
G--8--8--x--x--x--x--x--x--11---11------------------------------------|
D--7--7--x--x--x--x--x--x--10---10------------------------------------|
A--8--8--x--x--x--x--x--x--11---11------------------------------------|
E---------------------------------------------------------------------|

Pre-Last Chorus

e--7/-----7--x--7--7--7--7---x-x--7-----------------------------------|
B--7/-----7--x--7--7--7--7---x-x--7-----------------------------------|
G--7/--7--7--x--7--7--7--7---x-x--7-----------------------------------|
D--6/--6--6--x--6--6-----6---x-x--6-----------------------------------|
A--7/--7--7--x--7--------7---x-x--7-----------------------------------|
E---------------------------------------------------------------------|

Chorus "just a little bit"

e-----7--x--7--7--7--7--x-x--8-----8--x--8--8--8--8--x-x--9-----9--x--|
B-----7--x--7--7--7--7--x-x--8-----8--x--8--8--8--8--x-x--9-----9--x--|
G--7--7--x--7--7--7--7--x-x--8--8--8--x--8--8--8--8--x-x--9--9--9--x--|
D--6--6--x--6--6-----6--x-x--7--7--7--x--7--7-----7--x-x--8--8--8--x--|
A--7--7--x--7--------7--x-x--8--8--8--x--8--------8--x-x--9--9--9--x--|
E---------------------------------------------------------------------|

e--9--9--9--9--x-x-10------10--x--10--10--10--10--x-x--11-------------|
B--9--9--9--9--x-x-10------10--x--10--10--10--10--x-x--11-------------|
G--9--9--9--9--x-x-10--10--10--x--10--10--10--10--x-x--11-------------|
D--8--8-----8--x-x-9---9---9---x--9---9-------9---x-x--10-------------|
A--9--------9--x-x-10--10--10--x--10----------10--x-x--11-------------|
E---------------------------------------------------------------------|

any comments/corrections contact me, please rate
Tap to rate this tab
# A B C D E F G H I J K L M N O P Q R S T U V W X Y Z