Song name
# A B C D E F G H I J K L M N O P Q R S T U V W X Y Z

Minutemen - Only Minority tab

Help us improve GuitareTab! Take a short survey!
Band: Minutemen
Song: The Only Minority


tabbed by jam9383@yahoo.com


Verse

e---------------------------------------------------------------------|
B---10-10-10--x--x--x--x--x--x----------------------------------------|
G---9--9--9---x--x--x--x--x--x----------------------------------------|
D---8--8--8---x--x--x--x--x--x----------------------------------------|
A---9--9--9---x--x--x--x--x--x----------------------------------------|
E---------------------------------------------------------------------|

e---------------------------------------------------------------------|
B---8--8--8---x--x--x--x--x--x----------------------------------------|
G---7--7--7---x--x--x--x--x--x----------------------------------------|
D---6--6--6---x--x--x--x--x--x----------------------------------------|
A---7--7--7---x--x--x--x--x--x----------------------------------------|
E---------------------------------------------------------------------|

Pre-solo 1

e---------------------------------------------------------------------|
B----5---------5---4---------4--------4---7---10----------------------|
G----4-------4-----3-------3----------3---6---9-----------------------|
D----3-----3-------2-----2------------2---5---8-----------------------|
A----4---4---------3---3--------------3---6---9-----------------------|
E---------------------------------------------------------------------|

Solo 1

e---------------------------------------------11-11-11--11-11-11------|
B--10b-7----7-------10b--7----7---------7-10--11-11-11--11-11-11------|
G--------10---10-9---------10---10-7-10-------------------------------|
D---------------------------------------------------------------------|
A---------------------------------------------------------------------|
E---------------------------------------------------------------------|

e--14-14-14--13-12----------------------------------------------------|
B--14-14-14--13-12-----------------------8----------------------------|
G------------------10b--7-----7----7-10---10-7-10-9-7-7-9-7~----------|
D------------------------10----10-------------------------------------|
A---------------------------------------------------------------------|
E---------------------------------------------------------------------|

Outro Solo

e---------------------------------------------11-11-11--11-11-11------|
B--10b-7----7-------10b--7----7---------7-10--11-11-11--11-11-11------|
G--------10---10-9---------10---10-7-10-------------------------------|
D---------------------------------------------------------------------|
A---------------------------------------------------------------------|
E---------------------------------------------------------------------|

e--14-14-14-13--------------------------------------------------------|
B--14-14-14-13--10b-7----7--------7-10--7~----------------------------|
G---------------------10---10-10b-------------------------------------|
D---------------------------------------------------------------------|
A---------------------------------------------------------------------|
E---------------------------------------------------------------------|

any comments/corrections contact me, please rate
Related for Only Minority tab