Song name
# A B C D E F G H I J K L M N O P Q R S T U V W X Y Z

Miracle Legion - Maybelline tab

-------------------------------------------------------------------------------
     Maybelline -Miracle Legion
-------------------------------------------------------------------------------
Tabbed by:renmo92
Email:rmorales_777@hotmail.com

Tuning: Standard

e|---5----5---3--------------------5---5---3-----------------------------------------|
B|---5----7---3--------------------5---7---3-----------------------------------------|
G|---5----7---4--------------------5---7---4-----------------------------------------|
D|---7----7---5--------------------7---7---5-----------------------------------------|
A|---7----5---5--------------------7---5---5-----------------------------------------|
E|---5--------3--------------------5-------3-----------------------------------------|
Intro         That beautiful....                       memory....
Repeat this for the entire intro part
e|---5---3-3-3---5---3-3-3-----5---3-3-3-----------------------|
B|---5---3-3-3---7---5-5-5-----5---3-3-3-----------------------|
G|---5---4-4-4---7---5-5-5-----5---4-4-4---0-0-0-0-0-----------|
D|---7---5-5-5---7---5-5-5-----7---5-5-5---2-2-2-2-2------x10--|
A|---7---5-3-5---5---3-3-3-----7---5-5-5---2-2-2-2-2-----------|
E|---5---3-3-3-----------------5---3-3-3-----------------------|
Chrous     After the harmonica part

e|---5---3-3-3---------------------------2--|
B|---5---3-3-3---------------1-1-1-1-1---3--|
G|---5---4-4-4---0-0-0-0-0---0-0-0-0-0---2--|
D|---7---5-5-5---2-2-2-2-2---2-2-2-2-2------|
A|---7---5-5-5---2-2-2-2-2---3-3-3-3-3------|
E|---5---3-3-3------------------------------|

For the last part just play the chords from the intro.
I hope this helps.

Miracle Legion website: http://www.mezzotint.com/artists/legion_home/

| /  slide up
| \  slide down
| h  hammer-on
| p  pull-off
| ~  vibrato
| +  harmonic
| x  Mute note
Tap to rate this tab
# A B C D E F G H I J K L M N O P Q R S T U V W X Y Z