Song name
# A B C D E F G H I J K L M N O P Q R S T U V W X Y Z

Miracle Legion - The Backyard tab

-------------------------------------------------------------------------------
			     The Backyard - Miracle Legion
-------------------------------------------------------------------------------
Tabbed by: renmo92
Email: rmorales_777@hotmail.com

Tuning: standard

Main Riff
You play this riff for almost the entire song.
Listen to the song to get the strumming.

e|--3---3---3--3-----3---3---3--3-----3---3---0--3----------------|
B|--0---0---1--0-----0---0---1--0-----0---0---1--0----------------|
G|--0---0---0--0-----0---0---0--0-----0---0---0--0-----2p0-----0--|
D|--0---0---0--0-----0---0---0--0-----0---0---0--0----------0-----|
A|--2---2---2--2-----2---2---2--2-----2---2---2--2----------------|
E|--3---3---3--3-----3---3---3--3-----3---3---3--3----------------|


Chorus
Play Chords: C and D

e|--0----0-0---0-0------2----2-2---2-2---------------------------------------------------|
B|--1----1-1---1-1------3----3-3---3-3---------------------------------------------------|
G|--0----0-0---0-0------2----2-2---2-2---------------------------------------------------|
D|--2----2-2---2-2-----------------------------------------------------------------------|
A|--3----3-3---3-3-----------------------------------------------------------------------|
E|---------------------------------------------------------------------------------------|

Ending Part of Chorus
e|--0----0-0---0-0-----2--------------------3----3-3--3------------------|
B|--1----1-1---1-1-----3--------------------0----0-1--0------------------|
G|--0----0-0---0-0-----2--------------------0----0-0--0-------2p0-----0--|
D|--2----2-2---2-2-------------2------------0----0-0--0------------0-----|
A|--3----3-3---3-3-------------3--2---0-----2----2-2--2------------------|
E|------------------------------------------3----3-3--3------------------|

| /  slide up
| \  slide down
| h  hammer-on
| p  pull-off
| ~  vibrato
| +  harmonic
| x  Mute note
===============================================================================
Tap to rate this tab
# A B C D E F G H I J K L M N O P Q R S T U V W X Y Z