Song name
# A B C D E F G H I J K L M N O P Q R S T U V W X Y Z

Mirah - Telescope tab

Mirah - Telescope
Tabbed by Nikki Karam
-------------------------------------------------


Standard tuning.


The parts that are finger-picked go like this:

  A
e|-----------|
B|---2-------|
G|-------2---|
D|-----2-----|
A|---0-------|
E|-----------|


  D
e|---2-------|
B|-------3---|
G|-----2-----|
D|---0-------|
A|-----------|
E|-----------|


  C#
e|-----------|
B|---6-------|
G|-------6---|
D|-----6-----|
A|---4-------|
E|-----------|


And the progression is basically A, D, C#, A. The repetition of each varies throughout 
the song-- this should make sense when you listen it.



The chorus is not finger-picked, and these are the chords:


All the stars that shoot in the sky
A   Ab  Gb    E    D

They're falling in love with the sun
        A          D         C#  A

They're falling in love with the sun
        A          D         C#  A
Tap to rate this tab
 
# A B C D E F G H I J K L M N O P Q R S T U V W X Y Z