Mirah - Hallelujah tab

"Hallelujah"
by Thao and Mirah

DISCLAIMERS:
The bass melody is NOT included here. This is just one of the two acoustic guitars.

This tab is as accurate as I could get it. It is hard to pick out a single melody from 
various instruments, so please forgive any small mistakes.

This is my FIRST TAB :)

INTRO:

e|-0------0------------------------------0------0----------------------------|
B|--------------0-----0---------0--3------------------0-----0---------0--3---|
G|---0--2----2-----2-----0-----------------0--2----2-----2-----0-------------|
D|--------------------------0-------------------------------------0----------|
A|---------------------------------------------------------------------------|
E|---------------------------------------------------------------------------| (x2)

e|---------------------------------------------------------------------------|
B|-0--------0--------0-----0-------------------------------------------------|
G|----0--------0--------2-----2---0--------0---------------------------------|
D|-------0--------0------------------2--------2------4--4--4--4--------------|
A|--------------------------------------2--------2---------------------------|
E|---------------------------------------------------------------------------|

VERSE:

If you start to think that its all over now

e|----0-------------------------------0---------0----------------------------|
B|-0-----0------0----------0------0-------0--0-----0-------------------------|
G|-----------2-----2---0-----------------------------------------------------|
D|----------------------------2----------------------------------------------|
A|---------------------------------------------------------------------------|
E|---------------------------------------------------------------------------|

That the work you have done has been lost somehow ...
e|----0----------------------------------------------------------------------|
B|-0-----0------0------------------------------------------------------------|
G|-----------2-----2---0-----------0---------0----------0--------------------|
D|-------------------------2----------2----------2----------2----------------|
A|-----------------------------2----------2----------2----------2------------|
E|---------------------------------------------------------------------------| (x3)

You wake up hungry in this world you made
So much so how could you be turned away
Under thunder we drove through a black sky paved
With the threat we might die oh we were so afraid

You can throw your body up against the glass but you can't stop the rain
e|----0-------------------------------0---------0----------------------------|
B|-0-----0------0----------0------0-------0--0-----0-------------------------|
G|-----------2-----2---0-----------------------------------------------------|
D|----------------------------2----------------------------------------------|
A|---------------------------------------------------------------------------|
E|---------------------------------------------------------------------------|

From pouring in once the cracks have been made but there's still time to sing
e|----0----------------------------------------------------------------------|
B|-0-----0------0-------------------------------------------0--3-------------|
G|-----------2-----2---0-----------0---------0-------------------------------|
D|-------------------------2----------2----------2------0--------------------|
A|-----------------------------2----------2----------2-----------------------|
E|---------------------------------------------------------------------------|

CHORUS:

Hallelujah. Hallelujah.
e|-0------0------------------------------0------0----------------------------|
B|--------------0-----0---------0--3------------------0-----0---------0--3---|
G|---0--2----2-----2-----0-----------------0--2----2-----2-----0-------------|
D|--------------------------0-------------------------------------0----------|
A|---------------------------------------------------------------------------|
E|---------------------------------------------------------------------------| (x2)

e|---------------------------------------------------------------------------|
B|-0--------0--------0-----0-------------------------------------------------|
G|----0--------0--------2-----2---0--------0---------------------------------|
D|-------0--------0------------------2--------2------------------------------|
A|--------------------------------------2--------2---------------------------|
E|---------------------------------------------------------------------------|

e|---------------------------------------------------------------------------|
B|-0--------0--------0-----0-------------------------------------------------|
G|----0--------0--------2-----2---0--------0-------------------2-------------|
D|-------0--------0------------------2--------2------4--4--4-----------------|
A|--------------------------------------2--------2---------------------------|
E|---------------------------------------------------------------------------|

VERSE:
Who could stay sleepin' when that garbage man came
He stormed up the street 'cause we called out his name
With the sounds of us choking on the mess that's been made
Dig us out from this slumber

We've given salt, we've sweated off, done all this and more
So heed when you hear us knockin' on your door
We don't want to be the currency gets spent on war
And then come home wondering what was it all for

That's no way to sing

CHORUS:

Hallelujah. Hallelujah. (x2)

BRIDGE:

We've been hard hard workin'. We've got plan.
e|-0------0------------------------------0------0----------------------------|
B|--------------0-----0---------0--3------------------0-----0---------0--3---|
G|---0--2----2-----2-----0-----------------0--2----2-----2-----0-------------|
D|--------------------------0-------------------------------------0----------|
A|---------------------------------------------------------------------------|
E|---------------------------------------------------------------------------| (x2)

Send home dollar bills. And fistfuls of honey.
We've been workin' workin' for that money. (x4)

e|---------------------------------------------------------------------------|
B|-0--------0--------0-----0-------------------------------------------------|
G|----0--------0--------2-----2---0--------0---------------------------------|
D|-------0--------0------------------2--------2------------------------------|
A|--------------------------------------2--------2---------------------------|
E|---------------------------------------------------------------------------|


e|---------------------------------------------------------------------------|
B|-0--------0--------0-----0-------------------------------------------------|
G|----0--------0--------2-----2---0--------0-------------------2-------------|
D|-------0--------0------------------2--------2------4--4--4-----------------|
A|--------------------------------------2--------2---------------------------|
E|---------------------------------------------------------------------------|

e|-0------0------------------------------0------0----------------------------|
B|--------------0-----0---------0--3------------------0-----0---------0--3---|
G|---0--2----2-----2-----0-----------------0--2----2-----2-----0-------------|
D|--------------------------0-------------------------------------0----------|
A|---------------------------------------------------------------------------|
E|---------------------------------------------------------------------------|

e|-0------0------------------------------0------0---------------------------0|
B|--------------0-----0---------0--3------------------0-----0---------0--3--0|
G|---0--2----2-----2-----0-----------------0--2----2-----2-----0-------------|
D|--------------------------0-------------------------------------0----------|
A|---------------------------------------------------------------------------|
E|---------------------------------------------------------------------------|

Enjoy!
Tap to rate this tab
 
# A B C D E F G H I J K L M N O P Q R S T U V W X Y Z