Song name
# A B C D E F G H I J K L M N O P Q R S T U V W X Y Z

Mirah - Special Death tab

No copyright infringements here-- I made this for fun. Sorry for any inaccuracies, this 
is my first tab. ENJOY!

		Dm

E|-----------1-----------1-----------1-------|
B|-----3-----------3-----------3-------------|
G|--------2-----------2-----------2----------|
D|--0-----------------------0----------------|
A|--------------0-----------------------0--3-|
E|-------------------------------------------|
                A
E|------------------------------------|
B|----------2-----------2-----------2-|
G|----2-----------2-----------2-------|
D|-------2-----------2-----------2----|
A|-0-----------------------0----------|
E|-------------0----------------------|

                Dm
E|----------------1-----------1-----------1-------|
B|----------3-----------3-----------3-------------|
G|-------------2-----------2-----------2----------|
D|-3--2--0-----------------------0----------------|
A|-------------------0-----------------------0--3-|
E|------------------------------------------------|
                A
E|------------------------------------------|
B|----------2-----------2-----------2-------|
G|----2-----------2-----------2-------------|
D|-------2-----------2-----------2----------|
A|-0-----------------------0-----------3--2-|
E|-------------0----------------------------|
                      (Restart from the beginning and repeat for whole song)




Dm		      A
A terrible mistake was made
A			Dm
The weight would break the backs
Dm			A
Of ten strong horses tried to save
A	           Dm
The castle in the fray
Dm	A
If you knew
A		  Dm
That I could take the pain
Dm	        A
Inflicted at the battle
A		Dm
With faithful arrows you
Dm		    A
Might get back in the saddle
A			Dm
But it's a special death you saved
Dm			A
For me, the brown-eyed daughter
A		Dm
Once you made it hotter
Dm		A
The thankless, holy praise
A		Dm
Is left alone. Why bother
Dm		A
To cast a stone in water?
A	Dm
La la la la la
Dm	A
La la la la
A	Dm
La la la la la la
Dm	A
La la la la
A	Dm
La la la la la la
Dm	A
La la la la
A	Dm
La la la la la.
Tap to rate this tab
# A B C D E F G H I J K L M N O P Q R S T U V W X Y Z