Song name
# A B C D E F G H I J K L M N O P Q R S T U V W X Y Z

Mirah - Gone Sugaring chords

Highlighted       Show chord diagrams
-----------------------------------------------------------------------------
                             GONE SUGARING - Mirah
-----------------------------------------------------------------------------
Tabbed by: naphtali61
Email: naphtali61@hotmail.com

Standard Tuning

E - 022100
A - 577655
C# - 046664
B - 024442

Note: Use the tab to finger pluck the first half of the song.  For the second half 
switch over to power chords and try to emphasis the higher notes.

e|---4-------------------------------|
B|-----5-----2-------6-------4-------|
G|-------------2-------6-------4-----| x9
D|-----------------------------------|
A|---------0-----0-4-----4-2-----2---|
E|-0-----0---------------------------|


I'll come back with the
sugar shack smell

in my hair Train
take me there I'll have

eyes that've seen the
wilds of Pennsylvania in the

winter time

Do you believe me when I
say I'll miss you when I'm gone?

It's true, there's no use in
denying I'll be tapping

you for more Suck on my
sweet tooth till I'm sore Won't you

 E              A       C#   B
take me to the 24th floor?

           E               A
Where the air is clear and I can see The
 C#           B
sun is rising in the east I'll

 E           A
swing my feet recklessly
 C#        B
over the railway on a

   E   A
balcony as you
 C#        B
kiss me goodbye

 E  A
     As you
 C#        B
kiss me goodbye
Tap to rate this tab
 
# A B C D E F G H I J K L M N O P Q R S T U V W X Y Z