Song name
# A B C D E F G H I J K L M N O P Q R S T U V W X Y Z

Mirah - Advisory Committee tab

Okay, I think I got the whole song, enjoy it!
If I missed anything big let me know.
Questions/comments either comment, message 
or email (marysghosts@hotmail.com) me!

Advisory Committee
Standard tuning
Tabbed by Mary



RIFFS:

 Intro
e|---------------------------------|
B|---------------------------------|
G|---------------------------------|
D|---2---2---2---2---2---2---2---2-|
A|-----------------2---4---0---2---|
E|-0---2---4---0-------------------|

 Verse
e|---------------------------------|
B|---------------------------------|
G|---------------------------------|
D|-----6-6-----4-4-----------------|
A|-4-4-----2-2---------6-6-----4-4-|
E|-----------------4-4-----2-2-----|

 Interlude
e|---------------------------------|
B|---------------------------------|
G|---------------------------------|
D|---------------------------------|
A|-------7-------------------------|
E|-7-7-7---------------------------|
 
 Chorus (these are the chords G#, F#, and E, put with the strumming pattern)
e|-4--2--0-------------------------|
B|-4--2--0-------------------------|
G|-5--3--1-------------------------|
D|-6--4--2-------------------------|
A|-6--4--2-------------------------|
E|-4--2--0-------------------------|


SONG:

Intro (6 times)

---------------------------------------
Verse (4 times)

Heard a shot rang through the woods
Couldn't tell from what direction
Spun around and tried to see
If there were two if there were three

---------------------------------------
Intro (2 times)

---------------------------------------
Verse (4 times)

The mist came down the ground was wet
I talked with you inside my head
The way I have forgotten back
Quickly prepare it's an attack

---------------------------------------
Interlude (8 times)

---------------------------------------
Chorus (4 times)

Listen for the sound
Feel a shaking underground
To have the weapons and the time
The will to push off from the side

---------------------------------------
Intro (4 times)

---------------------------------------
Verse (4 times)

I use my eyes and use my head
I use all of the things you said
A person needs to know before
A hunting, hunting we will go

---------------------------------------
Interlude (8 times)

---------------------------------------
Verse (4 times)

Oh, my beloved alleyway
To go it takes a lot of patience
Figure out the constellations
Work on the coordination


---------------------------------------
Interlude (8 times)

---------------------------------------
Chorus (6 times)

Listen for the sound
Feel a shaking underground
To have the weapons and the time
The will to push off from the side
Listen for the sound
Listen for the sound

---------------------------------------
Tap to rate this tab
 
# A B C D E F G H I J K L M N O P Q R S T U V W X Y Z