Song name
# A B C D E F G H I J K L M N O P Q R S T U V W X Y Z

Mirah - La Familia tab

i got this off a great mirah tab site some time last year.  if anyone knows where it 
let me know.  anyway, i cannot take credit for this but i think it is pretty good.

verses:
e--------7-7-------0--0-|
a---0--------9-9-7--7---|
d-----------------------|
g-----------------------|
b--7--------------------|
E-0--7-9----------------|


chorus and i think bridge (at least part of it):
e-----0----9-----5-----7-|
a-----0----9-----5-----7-|
d------------------------|
g------------------------|
b-7-7--------------------|
E-------9-9--5-5---7-7---|   repeated a few times.
Tap to rate this tab
# A B C D E F G H I J K L M N O P Q R S T U V W X Y Z