Song name
# A B C D E F G H I J K L M N O P Q R S T U V W X Y Z

Miranda Cosgrove - Kissin You tab

Miranda Cosgrove- Kissin U
Tapped BY Kevin Ozomaro
ozoogames@gmail.com


|----------------------------------------------------------|(All down Strum)
|----------------------------------------------------------|
|--9-9-9-9-9-9-9-4-4-4-4-4-4-4-2-2-2-2-2-2-2-9-9-9-9-9-9-9-|
|--9-9-9-9-9-9-9-4-4-4-4-4-4-4-2-2-2-2-2-2-2-9-9-9-9-9-9-9-|
|--7-7-7-7-7-7-7-2-2-2-2-2-2-2---------------7-7-7-7-7-7-7-|
|----------------------------------------------------------|

Sparks fly, itís like electricity
I might die, when I forget how to breath
You get closer and thereís no where
In this world Iíd rather be
Time stops, like everything around me is frozen
And that the night is the thieves
Few moments when you open
My mind to things Iíve never seen

Chorus

|----------------------------------------------------------|(All down Strum)
|----------------------------------------------------------|
|--9-9-9-9-9-9-9-4-4-4-4-4-4-4-2-2-2-2-2-2-2-9-9-9-9-9-9-9-|
|--9-9-9-9-9-9-9-4-4-4-4-4-4-4-2-2-2-2-2-2-2-9-9-9-9-9-9-9-|
|--7-7-7-7-7-7-7-2-2-2-2-2-2-2---------------7-7-7-7-7-7-7-|
|----------------------------------------------------------|

Cause when Iím kissin u my senses come alive
Almost like the puzzle piece Iíve been tryin to find
Falls right into place youíre all that it takes
My doubts fade away when Iím kissing you
When Iím kissin u it all starts making sense
And all the questions Iíve been asking in my head
Like are you the one should I really trust
How clear it becomes when Iím kissing you

Past loves they never got really far
Walls of pictures Iíve got in my heart
And I promise I wouldnít do this
Till I knew it was right for me

But no one (no one) no guy that I met before
Could make me (make me) feel so right and secure
And have you noticed I loose my focus
And the world around me disappears

Bridge

|----------------------------------------------------------|(All down Strum)
|----------------------------------------------------------|
|--9-9-9-9-9-9-9-4-4-4-4-4-4-4-2-2-2-2-2-2-2-9-9-9-9-9-9-9-|
|--9-9-9-9-9-9-9-4-4-4-4-4-4-4-2-2-2-2-2-2-2-9-9-9-9-9-9-9-|
|--7-7-7-7-7-7-7-2-2-2-2-2-2-2---------------7-7-7-7-7-7-7-|
|--0-0-0-0-0-0-0-0-0-0-0-0-0-0-0-0-0-0-0-0-0-0-0-0-0-0-0-0-|

Iíve never felt nothing like this
Youíre makin me open up
No point in even tryin to fight this
It kinda feels like itís love


the order is intro, Chorus, Chorus, Chorus, Bridge, Chorus
Tap to rate this tab
 
# A B C D E F G H I J K L M N O P Q R S T U V W X Y Z