Song name
# A B C D E F G H I J K L M N O P Q R S T U V W X Y Z

Miranda Cosgrove - Shakespeare tab

-----------------------------------------------------------------------------
			    Shakespeare - Miranda Cosgrove
-------------------------------------------------------------------------------
Tabbed by: swissguy95
Email:swissguy95@gmail.com

Intro:
e|------------------
B|-9-9-9--8-9-11-9--
G|------------------
D|------------------
A|------------------
E|------------------

Verse/Chorus:
e|----------------------------------------------------
B|----------------------------------------------------
G|-------------6--6--6--6-----------------------------
D|-6--6--6--6--6--6--6--6--8--8--8--8--10--10--10--10-
A|-6--6--6--6--4--4--4--4--8--8--8--8--10--10--10--10-
E|-4--4--4--4--------------6--6--6--6--08--08--08--08-

Just listen to the song decide when and what you play.
Tap to rate this tab
# A B C D E F G H I J K L M N O P Q R S T U V W X Y Z