Song name
# A B C D E F G H I J K L M N O P Q R S T U V W X Y Z

Miranda Cosgrove - Raining Sunshine tab

Chords for the Intro

e|---3----0----2----2-------------------------------|
B|---2----1----2----3-------------------------------|
G|---2----2----4----2-------------------------------|
D|---2----2----4----0-------------------------------|
A|---0----0----2----0-------------------------------|
E|--------------------------------------------------|

Violin Part at the Intro

e|--------------------------------------------------|
B|--------------------------------------------------|
G|------------------------14------------------------|
D|------------------14-16---------------------------|
A|---------12/14/16---------------------------------|
E|---12-14------------------------------------------|
Tap to rate this tab
 
# A B C D E F G H I J K L M N O P Q R S T U V W X Y Z