Song name
# A B C D E F G H I J K L M N O P Q R S T U V W X Y Z

Miranda Cosgrove - Kissin U tab

Song: Kissin' U
Artist: Miranda Cosgrove
Album: Sparks Fly

no capo needed

(Just to let you know I'm not 100% sure this is accurate but this is
close enough, it is tabbed in the right key.)

VERSE

e|-----------------------------------------------------------------|
B|-----------------------------------------------------------------|
G|-----------------------------------------------------------------|
D|-8-8-8-8-8-8-8-8-3-3-3-3-3-3-3-3-5-5-5-5-5-5-5-5-----------------|
A|-6-6-6-6-6-6-6-6-1-1-1-1-1-1-1-1-3-3-3-3-3-3-3-3-6-6-6-6-6-6-6-6-|
E|-------------------------------------------------4-4-4-4-4-4-4-4-|

CHORUS

e|-----------------------------------------------------------------|
B|-----------------------------------------------------------------|
G|-8-8-8-8-8-8-8-8-3-3-3-3-3-3-3-3-5-5-5-5-5-5-5-5-----------------|
D|-8-8-8-8-8-8-8-8-3-3-3-3-3-3-3-3-5-5-5-5-5-5-5-5-6-6-6-6-6-6-6-6-|
A|-6-6-6-6-6-6-6-6-1-1-1-1-1-1-1-1-3-3-3-3-3-3-3-3-6-6-6-6-6-6-6-6-|
E|-------------------------------------------------4-4-4-4-4-4-4-4-|

BRIDGE (ring the notes)

e|----------------------------------------------------|
B|----------------------------------------------------|
G|-10--------------12--------------10-------------12--|
D|-8---------------10--------------8--------------10--|
A|----------------------------------------------------|
E|----------------------------------------------------|

e|----------------------------------------------------|
B|----------------------------------------------------|
G|-10--------------12--------------13------13-----15--|
D|-8---------------10--------------11------11-----12--|
A|----------------------------------------------------|
E|----------------------------------------------------|

e|-----------------------------------------------------------------|
B|-----------------------------------------------------------------|
G|-8---------------3---------------5-------------------------------|
D|-8---------------3---------------5---------------6---------------|
A|-------------------------------------------------6---------------|
E|-----------------------------------------------------------------|

The last part of the bridge above is actually the chorus. Play that once,
then continue to play the chorus part three more times until song end.

So the order of the song is:
VERSE (x4)
CHORUS (x4)
VERSE (x4)
CHORUS (x4)
BRIDGE (x1)
CHORUS (x3)

LYRICS:
Sparks fly, it's like electricity
I might die when I forget how to breathe
You get closer and then there's nowhere
in this world I'd rather be

Time stops like everything around me
It's frozen and nothing matters but these
few moments when you open my mind to things I've never seen

'Cause when I'm kissin you my senses come alive
Almost like the puzzle piece I've been tryin to find
falls right into place, you're all that it takes
My doubts fade away when I'm kissin you

When I'm kissin you it all starts makin sense
and all the questions I've been askin in my head
like, "are you the one?" "should I really trust?"
Crystal clear it becomes when I'm kissin you

Past loves, they never got very far
Walls up, made sure I guarded my heart
and I promised I wouldn't do this
'till I knew it was right for me

But no one, no guy that I met before
could make me feel so right and secure
and have you noticed I lose my focus
and the world around me disappears

'Cause when I'm kissin you my senses come alive
Almost like the puzzle piece I've been tryin to find
falls right into place, you're all that it takes
My doubts fade away when I'm kissin you

When I'm kissin you it all starts makin sense
and all the questions I've been askin in my head
like, "are you the one?" "should I really trust?"
Crystal clear it becomes when I'm kissin you

I've never felt nothing like this
You're making me open up
No point even trying to fight this
It kinda feels like it's love...

'Cause when I'm kissin you my senses come alive
Almost like the puzzle piece I've been tryin to find
falls right into place, you're all that it takes
My doubts fade away when I'm kissin you

When I'm kissin you it all starts makin sense
and all the questions I've been askin in my head
like, "are you the one?" "should I really trust?"
Crystal clear it becomes when I'm kissin you
Tap to rate this tab
 
# A B C D E F G H I J K L M N O P Q R S T U V W X Y Z