Song name
# A B C D E F G H I J K L M N O P Q R S T U V W X Y Z

Miranda Lambert - Take It Out On Me tab

Yo, this is right. i am 99.9% sure. if you have any questions, e-mail me at: 
enjoy!

tuneing: D    (D,G,C,F,A,D)
         G
         C
         F
         A
         D


solo 1

|-------------------------------------------------|
|---------15--14--12----------15--10--------------|
|-12------------------12--14------------11-11-----| X2
|-------------------------------------------------|
|-------------------------------------------------|
|-------------------------------------------------|


|-----------------------------------------------------------------|
|------------------------------15--13--12----------15--10---------|
|-12p11-12h14p12-12p11-12------------------12--14----------14b-11-|
|-----------------------------------------------------------------|
|-----------------------------------------------------------------|
|-----------------------------------------------------------------|


|--------------------------------------------|
|-----15--13--12----------15--10-------------|
|-12--------------12--14----------11-11-12---|
|--------------------------------------------|
|--------------------------------------------|
|--------------------------------------------|

solo 2                                        a bit faster bellow this

|-----------------------------------------------------------------|
|--13--12---------------------------------------------------------|
|---------12--------12--11--9------12--14--12--14---14-12-11-12-9-|
|------------14----------------12---------------------------------|
|-----------------------------------------------------------------|
|-----------------------------------------------------------------|

now it changes by adding in some bends!


|-----------------------------------------------------------------|
|--13--12---------------------------------------------------------|
|---------12-------11b -9------12--14--12--14b---14-12-11-12-9----|
|------------14-------------12------------------------------------|
|-----------------------------------------------------------------|
|-----------------------------------------------------------------|

|-----------------------------------------------------------------|
|--13--12---------------------------------------------------------|
|---------12--------12--11--9------12--14--12--14---14-12-11-12-9-|
|------------14----------------12---------------------------------|
|-----------------------------------------------------------------|
|-----------------------------------------------------------------|


|-----------------------------------------------------------------|
|--13--12---------------------------------------------------------|
|---------12-------11b -9------12--14--12--14b---14-12-11-12-9----|
|------------14-------------12------------------------------------|
|-----------------------------------------------------------------|
|-----------------------------------------------------------------|


|-----------------------------------------------------------------|
|--13--12---------------------------------------------------------|
|---------12--------12--11--9------12--14--12--14---14-12-11-12-9-|
|------------14----------------12---------------------------------|
|-----------------------------------------------------------------|
|-----------------------------------------------------------------|

|-----------------------------------------------------------------|
|--13--12---------------------------------------------------------|
|---------12-------11b -9------12--14--12--14b---14-12-11-12-9----|
|------------14-------------12------------------------------------|
|-----------------------------------------------------------------|
|-----------------------------------------------------------------|


thanx!, by: Aaron Denomme.
Tap to rate this tab
 
# A B C D E F G H I J K L M N O P Q R S T U V W X Y Z