Song name
# A B C D E F G H I J K L M N O P Q R S T U V W X Y Z

Miranda Lambert - Only Prettier tab

----------------------------------------------------------------------------
		     Only Prettier - Miranda Lambert
----------------------------------------------------------------------------
Tabbed by: 	Jason Wilkerson
Email:

Tuning:		Standard tuning, capo 1st fret

I've found a video of Miranda's lead playing this intro.  He picks it a little 
but this is a little more comfortable for me and sounds just about identical (but not).

Enjoy!


|--------------0---0-----0---3--0-------3--2--1--0--0---------|
|---------------1---1-----2-----------------------3--3--------|
|----------------0---0-----0------------4--3--2--1-1--1-------|
|---------2--3------------------------------------------------|
|------0-----------------4------------------------------------|
|---3-------------------------------2/3----2--1--0------------|

|---5--5^0---3--2--0h2--3-------------------------------------|
|---2--2-----1--1--1----0----2/3--2--1--0---------------------|
|-----------------------0----3/4--3--2--1---------------------|
|------------0--0--0----------------------0--2--4-------------|
|-0-----------------------------------------------------------|
|-------------------------------------------------3-----------|
Tap to rate this tab
# A B C D E F G H I J K L M N O P Q R S T U V W X Y Z