Song name
# A B C D E F G H I J K L M N O P Q R S T U V W X Y Z

Miranda Lambert - The House That Built Me tab

Tabbed By:abbott764
email:abbott764@gmail.com

Capo on 3

it's not exactly right but it sounds good

intro

e|-----------------------------0-2-3-2-0-----3-2-2-----0-0h2-0-------|
B|---------------3-----------3---3-3-3-2-3-2-0-3-3---3---3-----3-----|
G|-------------2-----------2-----2-2-2-2-----0-2-2-2-----2-----------|
D|---0---0---4-------0---0-------------------------------------------|
A|-0---0---0-------0---0---------------------------------------------|
E|-------------------------------------------------------------------|

e|-0-----2---2---2---2-|
B|-2-3-2-3---3---3---3-|
G|-2-----2-2-2-2-2-2-2-|
D|---------------------|
A|---------------------|
E|---------------------|
Tap to rate this tab
 
# A B C D E F G H I J K L M N O P Q R S T U V W X Y Z