Song name
# A B C D E F G H I J K L M N O P Q R S T U V W X Y Z

Miranda Lambert - White Liar tab

Capo on 3rd

Tuning: DADGBE

e|-----------------------------------------------------------------------------------|
b|---------------------------3--3---------------------------------------1--1---------|
g|---------------------------2--2--2h4--2p0----------------------------------0h2-0---|
d|-----------0h2--2/4--0-------------------------4p0--0p2--2--0----------2-----------|
a|--0h2------------------------------------------------------------------------------|
d|-----------------------------------------------------------------------------------|


e|-----------------------------------------------------------------------------------|
b|-----------------------------------------------------------------------------------|
g|-----------------------------------------------------------------------------------|
d|--0h2--0------------------------------0--------------------------------------------|
a|--------------2--2--0h2--2--0h2---------2p0----------------------------------------|
d|--------------------------------------------0--------------------------------------|
Tap to rate this tab
# A B C D E F G H I J K L M N O P Q R S T U V W X Y Z