Song name
# A B C D E F G H I J K L M N O P Q R S T U V W X Y Z

Miranda Lambert - Gunpowder And Lead tab

                    gun powder and lead                             
                         
                    Miranda Lambert
                        
                    tab by gocosfs

Guitar
     S S E  S S  S E  E  S S  S E     S S E.  S S S S  S S E  E  S  
E||--------------------------------|-------------------------------|
B||--------------------------------|-------------------------------|
G||------0---------0--0----3b---0--|----------0-----3p-0---0-----0-|
D||-----------0h-3-------3---------|------3-------3-----------3----|
A||--------------------------------|-------------------------------|
E||--3------3----------------------|--3---------3--------3---------|


  E  S  S S S S S S S E.   E  S    S S E.   E  S S  S S  S S  E.   
--------------------------------|---------------------------------|
----------------------3---------|---------------------------------|
------------0-----3---3b---0--0-|------3b---0---------------------|
-----0h-2-------2---------------|----0---------0-3p-0-3p-0--------|
--------------------------------|--------------------------1b-----|
--3-------3---3-----------------|-----------------------------3---|
  
Repeat for verse's 


Duration Legend
---------------
W - whole
H - half
Q - quarter
E - 8th
S - 16th
T - 32nd
X - 64th
. - note dotted
|-n-|  - n-tuplets


Tablature Legend
----------------
p - pull off
b - bend
Tap to rate this tab
# A B C D E F G H I J K L M N O P Q R S T U V W X Y Z