Guitaretab - guitar tabs
Song name
# A B C D E F G H I J K L M N O P Q R S T U V W X Y Z

Miranda - Don Solo De Lolo tab

Artist:	Miranda
Title:	Don (solo De  Lolo)

This is a Band from Mexico, Its kind of wierd but I like it. This solo
is incredibly easy. If you know the song its really easy to play. I
figured it out in like 5 min.

Es un solo…
Es la Guitarra de Lolo:

--------------------------------------------------------------------|
--------------------------------------------------------------------|
6-6-6-6-4-3-4-3-6-3-4-3-6-3-4-3-1-1-3-------------------------------|
--------------------------------------------------------------------|
--------------------------------------------------------------------|
--------------------------------------------------------------------|
[ Tab from: http://www.guitaretab.com/m/miranda/69113.html ]
--------------------------------------------------------------------|
--------------------------------------------------------------------|
6-6-6-4-3-4-3-6-3-4-3-6-3-4-3-1-3-----------------------------------|
-----------------------------------4--------------------------------|
--------------------------------------------------------------------|
--------------------------------------------------------------------|

---------------6-------------------6--------------------------------|
-7-7-7-7-7-7-7---7-7-7-7-7-7-7-7-7----------------------------------|
--------------------------------------------------------------------|
--------------------------------------------------------------------|
--------------------------------------------------------------------|
--------------------------------------------------------------------|

-s6-6-6-6-6-6-6-6-6-6-6-6-6-7-7-7-6---------------------------------|
-s7-7-7-7-7-7-7-7-7-7-7-7-7-7-7-7-7---------------------------------|
--------------------------------------------------------------------|
--------------------------------------------------------------------|
--------------------------------------------------------------------|
--------------------------------------------------------------------|

The rest of the song in some kind of power chord