Song name
# A B C D E F G H I J K L M N O P Q R S T U V W X Y Z

Miriam Makeba - Pata Pata tab

-----11--12h--11-----11--11--11--13--11------------------------------------|
-----------------------------------------13--11--11--11--11--11--11--8-----|
------------------------------------------------------------------------8--|
---------------------------------------------------------------------------|
---------------------------------------------------------------------------|
---------------------------------------------------------------------------|


---------------------------------------------------------------------------|
-----11--11---11--11--11--11--11--11--11--8--11----------------------------|
---------------------------------------------------------------------------|
---------------------------------------------------------------------------|
---------------------------------------------------------------------------|
---------------------------------------------------------------------------|


-----13--11-----------------------------------------------------------------|
-------------13--11---11--11--11--11--11--11--8-----------------------------|
-------------------------------------------------8--------------------------|
----------------------------------------------------------------------------|
----------------------------------------------------------------------------|
----------------------------------------------------------------------------|



-----13--11-----------------------------------------------------------------|
-------------13--11---11--11--11--11--11--11--8--11-------------------------|
----------------------------------------------------------------------------|
----------------------------------------------------------------------------|
----------------------------------------------------------------------------|
----------------------------------------------------------------------------|
Tap to rate this tab
 
# A B C D E F G H I J K L M N O P Q R S T U V W X Y Z