Song name
# A B C D E F G H I J K L M N O P Q R S T U V W X Y Z

Mironas Stratis - Pano Ap Ola tab

This is Miron Stratis song Ma Pano apo Ola is very famous in Greece
here is only the intro (Also this is my first tab ) :)


e------------------------------------------}
B------------------------------------------}
G-----4-5-2-2-2-2-10-10-10-10-9-10-9-7-----}YOU PLAY THAT
D---7--------------------------------------}3 TIMES
A------------------------------------------}
E------------------------------------------}

e------------------------------------------|
B------------------------------------------|
G-----4-5-2-2-2-2-10-10-10-10-9-10-9-12----|
D---7--------------------------------------|
A------------------------------------------|
E------------------------------------------|
Tap to rate this tab
# A B C D E F G H I J K L M N O P Q R S T U V W X Y Z