Song name
# A B C D E F G H I J K L M N O P Q R S T U V W X Y Z

Miroslav Skoro - Svetinja tab

Intro: Em G D C Em

Pick 5, 8 and 7 fast

E------------------------------------------------|
B-3-555555-3-555555---8-8--3-555555-3-555555-3-5-|
G------------------------------------------------|
D------------------------------------------------|
A------------------------------------------------|
E------------------------------------------------|

E------------------------------------------------|
B-3-5555555-7-88888-7---5-77777-87-87------------|
G---------------------9---------------9-9-7-9----|
D------------------------------------------------|
A------------------------------------------------|
E------------------------------------------------|

Verse

Em         G              D      C     Em
kakvo je to došlo vrijeme i brat brata vara
Em           G          D     C     Em
što nam rade loše sluge loših gospodara
Em                       G          D
svaka laž je trn u kruni mojih predaka
D         C   Em
a gdje je istina


Em           G         D      C    Em
nema rijeci, nema dara, niti pjesama
Em           G        D     C     Em
da sakriju moju muku, moja sjecanja
Em                       G          D
zlato daje, dušu krade, slatko progovara
D         C   Em
guja iz njedara

Chorus

Em     Am    D     Em
'ko to moje ime doziva
Em     Am    D         G
cudni ljudi, cudnog imena
Em     Am   D            Em
pa mi kunu, što je svetinja
Em     Am   D         Em
vjera, ljubav i domovina

Solo  X2

E------------------------------------------------|
B-3-5555555-7-88888-7---5-77777-87-87------------|
G---------------------9---------------9-9-7-9----|
D------------------------------------------------|
A------------------------------------------------|
E------------------------------------------------|


Em         G              D      C     Em
na sve strane dižu glave ptice rugalice
Em           G          D     C     Em
sve je manje sretnih dana, sloge i pravice
Em                       G          D
a najbolji medu nama nocu vodu piju
D         C   Em
bijelo lice kriju

Riff

E---------------|
B---------------|
G---------------|
D-2-1---0-------|
A-----2---4-2---|
E-------------3-|

Chorus

Solo

E-10-12-14-15--15-14-12-14-15-17--17-15-17--15-17----|
B-------------------------------------------------17-|
G----------------------------------------------------|
D----------------------------------------------------|
A----------------------------------------------------|
E----------------------------------------------------|

E-14-15--14-15-12--14-15-14-12-10-12-10--------------|
B---------------------------------------12-10-12-10--|
G----------------------------------------------------|
D----------------------------------------------------|
A----------------------------------------------------|
E----------------------------------------------------|

E----10----------------------------------------------|
B-12----12----10-10-8---8----------0----------0------|
G----------12---------9---9--7---7-------0------7-7--|
D------------------------------9-------7---7---------|
A----------------------------------------------------|
E----------------------------------------------------|

E---0------------------|
B-8-----0--------------|
G-----7----------0-----|
D----------7-7-7-------|
A--------------------7-|
E----------------------|


Em                     X6
Ko to moje ime doziva

Chorus

Outro

E--------------------------|
B-3-555555555--3-55555-3-5-|
G--------------------------|
D--------------------------|
A--------------------------|
E--------------------------|
Tap to rate this tab
# A B C D E F G H I J K L M N O P Q R S T U V W X Y Z