Miroslav Skoro - Tamo Gdje Je Dom Am tab

Tamo gdje je dom - Miroslav Skoro


Intro
    Am                                 Dm            Dm
E|-----------------------------------|-------------|---------------------------------------|
B|---------------------------5---6---|-------------|--------------------5------------------|
G|--------------------5--7-----------|-7-----------|----------7--7--7-------7---5----------|
D|------5--5--5---7------------------|-------------|--------------------------------7--5---|
A|-----------------------------------|-------------|---------------------------------------|
E|-----------------------------------|-------------|---------------------------------------|

  Am        Am                                G             G
E|-------|-----------------------------------|---------|-----------------------------------|
B|-------|-----------------------------------|---------|-----------------------------------|
G|-------|-----------------------------------|---------|-----------------------------------|
D|-7-----|----------------------------2--3---|---------|----------------3------------------|
A|-------|------0--0--0---2---3---5----------|-5-------|------5--5--5-------5---3---2--3---|
E|-------|-----------------------------------|---------|-----------------------------------|

   Am              Am
E|-------------|    Tamo|
B|-------------| ------ |
G|-------------| ------ |
D|-------------|  ------|
A|-0-----------| ------ |
E|-------------| ------ |


Am               Dm                            Am
Tamo gdje me srce vuce  za cim gine, zbog ceg' tuce
Am               G                       Am
sto je drago oku mom  to se mjesto zove dom
   
Am                 Dm                       Am
Kleknem pa se prekrizim svetu zemlju poljubim
Am           G                   Am
kao majka mirise kad se sinu raduje  


C         F                 C            F
 Evo mene, moje nebo  plavo  na srcu si mom
C        F                Am             G
 dolazio  nisam ti odavno   tamo gdje je dom
F    G       Am
tamo gdje je dom  


Intro:

Am              Dm                    Am  
Ja se moram vratiti gdje su moji grobovi
Am                 G                 Am
pored rijeke granica tu je zadnja stanica  
Am                 Dm                     Am
Kleknem pa se prekrizim svetu zemlju poljubim
Am           G                 Am
kao majka mirise kad se sinu raduje  


C         F                 C            F
 Evo mene, moje nebo  plavo  na srcu si mom
C        F                Am             G
 dolazio  nisam ti odavno   tamo gdje je dom

C         F                     C             F
Evo mene,  dal' jos mjesta ima   tu na krilu tvom
C            F                 Am              G
 zagrli meee, zemljo moja mila     ovdje mi je dom  
F     G      Am
ovdje mi je dom


Solo:

Am                Dm                           Am
Tamo gdje me srce vuce  za cim gine, zbog ceg' tuce
Am               G                       Am
sto je drago oku mom  to se mjesto zove dom



Rokizeljko@a1.net
Tap to rate this tab
 
# A B C D E F G H I J K L M N O P Q R S T U V W X Y Z