Song name
# A B C D E F G H I J K L M N O P Q R S T U V W X Y Z

Mirrors Show Lies - Curb Stomp The Drama tab

Band:Mirrors Show Lies
Song:Curb Stomp The Drama

Intro
d|-------------------------------------------------------------|
a|-------------------------------------------------------------|
f|-------------------------------------------------------------|
c|-00-----7p0-00-----7p0--0-0-0-00-----7p0--00-----7p0-8p0-7p0-|
g|-00-5p0-----00-5p0------0-0-0-00-5p0------00-5p0-------------|
c|-00---------00----------0-0-0-00----------00-----------------|
pm ..         ..          . . . ..          ..

d|--------------------------------------------------------------------|
a|--------------------------------------------------------------------|
f|--------------------------------------------------------------------|
c|-33-----7p0-33-----7p0-3-3-3-88-----7p0-88-7h8p7-5h7p5-3h5p3-2h3p2--|
g|-33-5p0-----33-5p0-----3-3-3-88-5p0-----88--------------------------|
c|-33---------33---------3-3-3-88---------88--------------------------|
pm ..         ..         . . . ..         ..

play bar one of the intro then two then one then two

Verse
d|--------------------------------------|
a|---6--------6-----------6-----------6-|
f|---9--------9-----------9-----------9-|
c|-0-7--000-0-7-000-8-8-8-7-888-8-8-8-7-|
g|-0-0--000-0-0-000-8-8-8---888-8-8-8---|X2
c|-0-0--000-0-0-000-8-8-8---888-8-8-8---|
pm      ...     ...         ...  

then play intro again

then verse 4 times pause

play verse two more times
than...

Bridge
d|-----------------------------|-------------------------------|
a|-----------------------------|-------------------------------|
f|-----------------------------|-------------------------------|
c|-0-7h8p7-5h7p5-3h5p3-2-3-5-3-|---8-7h8p7-5h7p5-3h5p3-2-3-5-3-|
g|-0---------------------------|X2-8---------------------------|X2
c|-0---------------------------|---8---------------------------|
play whole bridge twice 
then verse till end



Tap to rate this tab
# A B C D E F G H I J K L M N O P Q R S T U V W X Y Z