Song name
# A B C D E F G H I J K L M N O P Q R S T U V W X Y Z

Mis? Computer Games - Guitar Hero 3 - Devil Went Down To Georgia tab

it was heavily requested and its 100% correct, tune to drop D      eBGDAD

V=vibrato
b=bend
h=hammer on
p=pull off
/=slide
x=palm mute
\\=pick scrape

Riff order: 

Riff 1, 1 time
Riff 2, 15 times 
Riff 2's ending
Riff 3, 2 times
Riff 4, 2 times
Riff 4's ending
Riff 1, 1 time
Riff 2, 3 times
Riff 5, 2 times
Riff 6, 1 time
solos
Riff 7, 3 times
solos
Riff 7, 3 times
ENDING!!!

Riff 1
e|-------------------17-18-17-15--------------------------13-15-17-15-13----|
B|-------------15-17------------18-17-15--13-15-17-15-17-----------------17-|
G|-15-15-17-18--------------------------------------------------------------|
D|--------------------------------------------------------------------------|
A|--------------------------------------------------------------------------|
D|--------------------------------------------------------------------------|

e|--------------------------------------------------------------------------|
B|-15-15h17p15-13h15p13-11h13p11-9h11p9-7h9p7-5h7p5-3-----------------------|
G|--------------------------------------------------------------------------|
D|-------------------------------------------------------2--5--7------------|
A|-------------------------------------------------------0--3--5------------|
D|--------------------------------------------------------------------------|


riff two (alternate pick with right handed palm muting)
e|---------------------|------------------------|
B|---------------------|------------------------|
G|---------------------|------------------------|
D|---------------------|-2-5-7------------------|
A|---------------------|-0-3-5------------------|
D|-0-0-0-0-0-0-0-0-----|------------------------| 
                                                                  ^^^End of riff two^^^

Riff three
e|-------------------------------------------|
B|-------------------------------------------|
G|-------------------------------------------|
D|-------------------------------------------|
A|-------------------------------------------|
D|10h12-0-0-0-0-10h12-0-0-0-0-10h12-0-0------|

e|-------------------------------------------|
B|-------------------------------------------|
G|-------------------------------------------|
D|-------------------------------------------|
A|-------------------------------------------|
D|10h12-0-0-0-0-13h12-0-0-0-0-10h12-0-0------|

e|-------------------------------------------|
B|-------------------------------------------|
G|-------------------------------------------|
D|-------------------------------------------|
A|-------------------------------------------|
D|10h12-0-0-0-0-10h12-0-0-0-0-10h12-0-0------|

e|-------------------------------------------|
B|-------------------------------------------|
G|-------------------------------------------|
D|-------------------2-5-7-------------------|
A|-------------------0-3-5-------------------|
D|10h12-0-0-0-0-0-0--------------------------|

riff 4
e|-------------------------------|
B|-------------------------------|
G|-x-x-7---x-x-7---x-x-7---x-x-7-|
D|-x-x-7---x-x-7---x-x-7---x-x-7-|
A|-x-x-5---x-x-5---x-x-5---x-x-5-|
D|-------------------------------|

e|-------------------------------|
B|-------------------------------|
G|-x-x-5---x-x-5---x-x-5---x-x-5-|
D|-x-x-5---x-x-5---x-x-5---x-x-5-|
A|-x-x-3---x-x-3---x-x-3---x-x-3-|
D|-------------------------------|

e|-------------------------------|
B|-------------------------------|
G|-x-x-12--x-x-12--x-x-12--x-x-12|
D|-x-x-12--x-x-12--x-x-12--x-x-12|
A|-x-x-10--x-x-10--x-x-10--x-x-10|
D|-------------------------------|

riff 4 ending

e|---------------------|
B|---------------------|
G|---------------------|
D|---------------------|
A|---------------------|
D|--7-5-3-2------------|

riff 5
e|-2-x-x-2-5-5-x-5-4-x-x4-2-2-x-2----------|
B|-3-x-x-3-6-6-x-6-5-x-x5-3-3-x-3----------|
G|-2-x-x-2-5-5-x-5-4-x-x4-2-2-x-2----------|
D|-----------------------------------------|
A|-----------------------------------------|
D|-----------------------------------------|

Riff 6
e|--------------------------------------------------------------------------|
B|--------------------------------------------------------------------------|
G|--------------------------------------------------------------------------|
D|--------------------------------------------------------------------------|
A|-5--------5---------------------------------------------------------------|
D|--1-3-4-5--5-4-3-1-5-4-5-1-3-1--------------------------------------------|

Solos, sorry it would take far to long for me to figure these out.

Riff 7
e|--------------------------------------------------------------------------|
B|-18-17-18-20-18p17---17-18-17-18-20-18p17------------------------17-18-20-|
G|------------------19---------------------19-14-17-14-17-14-17/19----------|
D|--------------------------------------------------------------------------|
A|--------------------------------------------------------------------------|
D|--------------------------------------------------------------------------|

e|------17------------------------------------------------------------------|
B|-17-20---20-17---17-------------------------------------------------------|
G|--------------19----------------------------------------------------------|
D|--------------------------------------------------------------------------|
A|--------------------------------------------------------------------------|
D|--------------------------------------------------------------------------|

ENDING!!!
e|--------------------------------------------------------------------------|
B|-10---8--6---5-----10---8--6---5------10--8--6--5-------------------------|
G|--9---7--5---4------9---7--5---4-------9--7--5--4--7--5-----7--7----------|
D|---------------------------------------------------7--5-----7--7----------|
A|------------------------------------------------------------5--5----------|
D|--------------------------------------------------------------------------|

Tap to rate this tab
 
# A B C D E F G H I J K L M N O P Q R S T U V W X Y Z