Song name
# A B C D E F G H I J K L M N O P Q R S T U V W X Y Z

Mis? Unsigned Bands - The Methadones - Take A Look tab

----------------------------------------------------------------------------
			  Take A Look - The Methadones
----------------------------------------------------------------------------
Tabbed by: Sean
Email: sps8131991@yahoo.com

Tuning: Standard

Intro/Verse  
e|-------------------------|
B|-------------------------|
G|--------7----------------|
D|--4-----7-x8--7----------|
A|--4-x8--5-----7-x16------|
E|--2-----------5----------|
    x     x     x

Intro/Verse Lead
e|-----------------------------------------------------------------------------|
B|--------------------------15-15-15-14-14----------------------------12-12----|
G|--11-14-16-14-11-14-16-14-------------------11-14-16-14-11-14-16-14-------14-|
D|-----------------------------------------------------------------------------|
A|-----------------------------------------------------------------------------|
E|-----------------------------------------------------------------------------|

Chorus
(Both Guitars)
e|----------------------------------------------|
B|----------------------------------------------|
G|------------------7---------------------------|
D|--4-------2-------7-x16---7-------------------|
A|--4-x16---2-x16---5-------7-x16---------------|
E|--2-------0---------------5-------------------|


Outro
e|-----------------------------------------------------------|
B|-----------------------------------------------------------|
G|----------------------------------------7------------------|
D|------------4-------------2-------------7-------------7----|
A|------------4-------------2-------------5-------------7----|
E|------------2-------------0---------------------------5----|
Outro Lead
e|-----------------------------------------------------------|
B|-----------------------------------------------------------|
G|-----------------------------------------------------------|
D|--4-7-7-7/9-7---4-7-7-7/9-7---4-7-7-7/9-7---4-7-7-7/9-7----|
A|-----------------------------------------------------------|
E|-----------------------------------------------------------|

The timing is off but it's not hard to figure out.

Riff Order

Intro x4
Intro x4 w/ Intro Lead x2
Verse x4
Verse x4 w/ Verse Lead x2
Verse x4
Chorus x2
Verse x4 w/ Intro Lead
Verse x4
Chorus x3
Chorus x3 w/ Outro Lead x3
Outro x3 w/ Outro Lead x.75   

| /  slide up
| x  Mute note

MySpace URL:   
http://www.myspace.com/themethadones   

Tap to rate this tab
 
# A B C D E F G H I J K L M N O P Q R S T U V W X Y Z