Song name
# A B C D E F G H I J K L M N O P Q R S T U V W X Y Z

Misc Cartoons - Shrek - Friends Journey To Duloc tab

Basad
this part is from the movie shrek 1, it's a nice guitar part from the soundtrack. this 
my first tab.


e:|-----------------------|---------------------|
B:|------------------7----|-----------------10--|
G:|-----7---9---9--------:|:--9--7---11--------:|
D:|--9--------------------|---------------------|
A:|-----------------------|---------------------|
E:|-----------------------|---------------------|


e:|-----------------------|---------------------|
B:|------------------7----|---------------------|
G:|-----7---9---9--------:|:--9-----7---7------:|
D:|--9--------------------|---------------------|
A:|-----------------------|---------------------|
E:|-----------------------|---------------------|

e:|-----------------------|---------------------|
B:|-10---------------7----|-----------------10--|
G:|----11---9---9--------:|:--9--7---11--------:|
D:|-----------------------|---------------------|
A:|-----------------------|---------------------|
E:|-----------------------|---------------------|

e:|-----------------------|---------------------|
B:|------------------7----|---------------------|
G:|-----7---9---9--------:|:--9-----7---7------:|
D:|--9--------------------|---------------------|
A:|-----------------------|---------------------|
E:|-----------------------|---------------------|


e:|-----------------------|---------------------|
B:|-12---10---10----------|--7-----------7-10---|
G:|----------------------:|:---7-9---7---9-----:|
D:|-----------------------|---------------------|
A:|-----------------------|---------------------|
E:|-----------------------|---------------------|

e:|-----------------------|---------------------|
B:|-12---10---10----------|--7----7-------------|
G:|----------------------:|:---7-9-------9-7---:|
D:|-----------------------|---------------------|
A:|-----------------------|---------------------|
E:|-----------------------|---------------------|


e:|-----------------------|---------------------|
B:|------------------7----|-------------8---7---|
G:|-----7---9---9--------:|:--9----------------:|
D:|--9--------------------|---------------------|
A:|-----------------------|---------------------|
E:|-----------------------|---------------------|
Tap to rate this tab
 
# A B C D E F G H I J K L M N O P Q R S T U V W X Y Z