Song name
# A B C D E F G H I J K L M N O P Q R S T U V W X Y Z

Misc Cartoons - Sponge Bob Square Pants - Credits tab

E|7-6-7-9-7------7-6-7-9-7-------|7-7-7---10-10-10-9-7-|-7-6-7-9-7-----|
B|-------------------------------|--6-6---9--9---------|---------------|
G|-------------------------------|--6-6---9--9---------|---------------|
D|-------------------------------|---------------------|---------------|
A|------------7----------------7-|---------------------|-------------7-|
E|----------5----------------5---|---------------------|-----------5---|

E|7-6-7-9-7-7-9-11b~-|
B|-------------------|
G|-------------------|
D|-------------------|
A|-------------------|
E|-------------------|

The tab might be weird but its my first time tabbing so enjoy :) 

Tap to rate this tab
 
# A B C D E F G H I J K L M N O P Q R S T U V W X Y Z