Song name
# A B C D E F G H I J K L M N O P Q R S T U V W X Y Z

Misc Cartoons - Devil May Cry - Opening tab

Devil May Cry - The Animated Series: “Opening Theme”

This tab was possible thanks to the video by CpxAZn on youtube. Thanks a bunch dude. I 
all I did was tab based on the video and his/her fingering…he/she made the video and 
the song. This is his/her true work. Here’s the link to the video which I used to tab the song:
http://www.youtube.com/watch?v=v4qLswi9-o0&feature=related

INTRO:
E---------------------------8-10-11--10--8--11--10~---8-10--|
B--5/9--8------9--8~------8---------------------------------|
G----------10----------10-----------------------------------|
D-----------------------------------------------------------|
A-----------------------------------------------------------|
E-----------------------------------------------------------|


VERSE:
E---------------------------8-10-11--10--8--11--13~---11--10-----------|
B--5/9--8------9--8~------8-----------------------------------11--13~--|
G----------10----------10----------------------------------------------|
D----------------------------------------------------------------------|
A----------------------------------------------------------------------|
E----------------------------------------------------------------------|

E----------------------------|
B--13-11-9-13~--13-11-9-13~--|
G----------------------------|
D----------------------------|
A----------------------------|
E----------------------------|


SOLO:
E--------------------------15----------------13----------------------------|
B--9/13--13h14--16--13--13-----16--13------------14--11--------------------|
G-------------------------------------13--13------------12~--12-13-15-12~--|
D--------------------------------------------------------------------------|
A--------------------------------------------------------------------------|
E--------------------------------------------------------------------------|

E--------------------------15----------------13----------------------------|
B--9/13--13h14--16--13--13-----16--13------------14--11--------------------|
G-------------------------------------13--13------------12~--12-13-15-17~--|
D--------------------------------------------------------------------------|
A--------------------------------------------------------------------------|
E--------------------------------------------------------------------------|


VERSE 2:
E---------------------------8-10-11--10--8--11--10~---8-10--|
B--5/9--8------9--8~------8---------------------------------|
G----------10----------10-----------------------------------|
D-----------------------------------------------------------|
A-----------------------------------------------------------|
E-----------------------------------------------------------|

OUTRO:
E---------------------------8-10-11--10--8--11--13~---11--10-----------|
B--5/9--8------9--8~------8-----------------------------------11--13~--|
G----------10----------10----------------------------------------------|
D----------------------------------------------------------------------|
A----------------------------------------------------------------------|
E----------------------------------------------------------------------|

E----------------------------|
B--13-11-9-13~--13-11-9-13~--|
G----------------------------|
D----------------------------|
A----------------------------|
E----------------------------|

To be honest, there are no real “parts” to the song (no real INTRO or VERSE). The guitar 
all the way through, not really stopping anywhere. Good Luck and Happiest of Playing!
Tap to rate this tab
# A B C D E F G H I J K L M N O P Q R S T U V W X Y Z