Song name
# A B C D E F G H I J K L M N O P Q R S T U V W X Y Z

Misc Cartoons - Pokemon - Lugia Song tab

This sounds right.
I'm not entirely sure if this is in the correct key, but you can move it up and
down the neck as required.
Use the spacing as a rough guide to the timing.
Have fun.

|---------------------------------------------------------------|
|---------------------------------------------------------------|
|--9--------12----------11--------------------9-----------------|
|---------------------------------12-------------------9--------|
|---------------------------------------------------------------|
|---------------------------------------------------------------|


-------------------------------------------|
-------------------------------------------|
--9--------12----------11------------------|
---------------------------------12--------|
-------------------------------------------|
-------------------------------------------|


-------------------------12--------10-------------------------------|
-----------------------------------------------12--------8----10----|
--9--11--12---------------------------------------------------------|
--------------------------------------------------------------------|
--------------------------------------------------------------------|
--------------------------------------------------------------------|


---------------------------------------------------------------|
---------------------------------------------------------------|
--9--------9----------12--------11--------------------9--------|
--------------------------------------------12-----------------|
---------------------------------------------------------------|
---------------------------------------------------------------|


Pyrest
Tap to rate this tab
# A B C D E F G H I J K L M N O P Q R S T U V W X Y Z