Song name
# A B C D E F G H I J K L M N O P Q R S T U V W X Y Z

Misc Cartoons - Pepper Ann Theme tab

-------------------------------------------------------------------
			                                 PEPPER ANN
-------------------------------------------------------------------
Tabbed by: Rawker_Hero
Email: war_pyro_@hotmail.com

Tuning: Standard

e|----------------------------|
B|----------------------------|
G|----------------------------|
D|----------------------------|    Intro Riff
A|----------5-6-5-------------|
E|----5-5-8-------8-5---------|

           (A)                             (D) 
Who's that girl?  What's her name?  Is she cool?  Is she lame?
           (A)                             (D)
Oh, you're talkin' 'bout what's-her-name - Pepper Ann!
        (A)                        (D) 
Is she lame?  Is she cool?  Is she breakin' every rule?
       (A)              (D)
Is she anybody's fool?  Pepper Ann!
       (D)         (A)           (C)         (G)
Pepper Ann, Pepper Ann, marchin' in her own parade.
       (D)             (A)      (C) (G)
Pepper Ann, she's like one in a million!
       (D)         (A)           (C)              (G)
Pepper Ann, Pepper Ann, much too cool for seventh grade.
(A#)             (F)         (A)
Catch 'er if you can, Pepper Ann!

SOLO:         D-A-C-G x3  A#-F-A

e|------------------------------------------------------------|
B|------7--7-10------7-8h7-----------7--7-10------7-8/15~-----|
G|--7-9---------9--9-------9-77--7-9---------9--9-------------|
D|------------------------------------------------------------|
A|------------------------------------------------------------|
E|------------------------------------------------------------|

e|------------------------------------------------------------|
B|------7--7-10------7-8h7------------------81010101010~------|
G|--7-9---------9--9-------9-77---7779101010------------------|
D|------------------------------------------------------------|
A|------------------------------------------------------------|
E|------------------------------------------------------------|

(Stupid Funny Dialogue)

Who?  Is that that girl from gym class?  No, that's me.  Ewwww . . .
Who is she and why does she have her own song?
Did someone take my lunch?    (lol)

       (D)         (A)           (C)         (G)
Pepper Ann, Pepper Ann, marchin' in her own parade.
       (D)             (A)      (C) (G)
Pepper Ann, she's like one in a million!
       (D)         (A)           (C)              (G)
Pepper Ann, Pepper Ann, much too cool for seventh grade.
(A#)             (F)         (A)
No one's cooler than Pepper Ann!
          (A#)        (F)        (A)
She's her own biggest fan Pepper Ann!
(A#)             (F)         (A)
Catch 'er if you can, Pepper Ann!       (Ends on D)

"Hey, five bucks!"



Thats it!
Fun and easy song to do.  I couldn't find any tabz of this song so I
put up one of my own. Hope ya like it.
Tap to rate this tab
# A B C D E F G H I J K L M N O P Q R S T U V W X Y Z