Guitaretab - guitar tabs
Song name
# A B C D E F G H I J K L M N O P Q R S T U V W X Y Z

Misc Cartoons - X-men Theme tab

===============================================================================
			     Misc Cartoons - X-men Theme
===============================================================================

Artist: Misc Cartoons
Album: Misc Soundtrack
Song Title: "X-men Theme"
Tuning: Standard (low to high) E-A-D-G-B-e
Tabbed By: JOE_DESTROYER

I saw that the other people on the site kinda only did a half assed effort at tabbing 
out so i decided to do it right lol


e|---------------------------|---------------------------|
B|---------------------------|---------------------------|
G|---------------------------|---------------------------|
D|---------------------------|---------------------------|
A|---------------------------|---------------------------|
E|---------------------------|---------------------------|
 |                           |                           |
e|---------------------------|---------------------------|
B|---------------------------|---------------------------|
G|---------------------------|---------------------------|
D|------1----------3-1-------|------1----------3-1-------|
A|-333----3------------------|-333----3------------------|
E|-------------444-----------|-------------444-----------|

e|---------------------------|---------------------------|
B|---------------------------|---------------------------|
G|-5----5------5---5---------|-5----5------5---5---------|   The lead should
D|---------------------------|---------------------------|   get louder and
A|-3----3------3---3---------|-3----3------3---3---------|   louder at this
E|---------------------------|---------------------------|   part
 |                           |                           |
e|---------------------------|---------------------------|
B|---------------------------|---------------------------|
G|---------------------------|---------------------------|
D|------1----------3-1-------|------1----------3-1-------|
A|-333----3------------------|-333----3------------------|
E|-------------444-----------|-------------444-----------|

e|---------------------------|---------------------------|
B|---------------------------|---------------------------|
G|---5-7-8-7-5---------------|---5-7-8-5-7---------------|
D|-5-----------5-------------|-5-----------6-------------|
A|---------------------------|---------------------------|
E|---------------------------|---------------------------|
 |                           |                           |
e|---------------------------|---------------------------|
B|---------------------------|---------------------------|
G|---------------------------|---------------------------|
D|------1----------3-1-------|------1----------3-1-------|
A|-333----3------------------|-333----3------------------|
E|-------------444-----------|-------------444-----------|

e|---------------------------|---------------------------|
B|---------------------------|---------------------------|
G|---5-7-8-7---5-8-----------|-7-5-----------------------|
D|-5-------------------------|---------------------------|
A|---------------------------|---------------------------|
E|---------------------------|---------------------------|
 |                           |                           |
e|---------------------------|---------------------------|
B|---------------------------|---------------------------|
G|---------------------------|---------------------------|
D|------1----------3-1-------|------1----------3-1-------|
A|-333----3------------------|-333----3------------------|
E|-------------444-----------|-------------444-----------|


e|---------------------------|---------------------------|
B|---------------------------|---------------------------|
G|----10-12-13-12-10---------|----10-12-13-12-10---------|
D|-10----------------10------|-10----------------11------|
A|---------------------------|---------------------------|
E|---------------------------|---------------------------|
 |                           |                           |
e|---------------------------|---------------------------|
B|---------------------------|---------------------------|
G|------1----------3-1-------|------1----------3-1-------|
D|-333----3------------------|-333----3------------------|
A|-------------444-----------|-------------444-----------|
E|---------------------------|---------------------------|

e|---------------------------|---------------------------|
B|---------------------------|---------------------------|
G|---5-7-8-7---5-8-----------|-7-5-----------------------|
D|-5-------------------------|---------------------------|
A|---------------------------|---------------------------|
E|---------------------------|---------------------------|
 |                           |                           |
e|---------------------------|---------------------------|
B|---------------------------|---------------------------|
G|---------------------------|---------------------------|
D|------1----------3-1-------|------1----------3-1-------|
A|-333----3------------------|-333----3------------------|
E|-------------444-----------|-------------444-----------|

e|---------------------------|---------------------------|
B|---------------------------|---------------------------|
G|---------------------------|---------------------------|
D|-6-5-3-6-5-3-6-5-3-6-5-3---|-8-6-5-8-6-5-8-6-5-8-6-5---|
A|---------------------------|---------------------------|
E|---------------------------|---------------------------|
 |                           |                           |
e|---------------------------|---------------------------|
B|---------------------------|---------------------------|
G|-7-------------------------|-8-------------------------|  I like to use
D|---------------------------|---------------------------|  swelling for the
A|-5-------------------------|-6-------------------------|  rythm part here
E|---------------------------|---------------------------|
[ Tab from: http://www.guitaretab.com/m/misc-cartoons/111344.html ]
e|---------------------------|---------------------------|
B|---------------------------|------9-8------------------|
G|---------------------------|----8----------------------|
D|10-8-6-10-8-6-10-8-6-10-8-6|-10------------------------|
A|---------------------------|---------------------------|
E|---------------------------|---------------------------|
 |                           |                           |
e|---------------------------|---------------------------|
B|---------------------------|---------------------------|
G|-10------------------------|-12------------------------|
D|---------------------------|---------------------------|
A|-8-------------------------|---------------------------|
E|---------------------------|-10------------------------|

e|---------------------------|---------------------------|
B|---------------------------|---------------------------|
G|---5-7-8-7-5---------------|---5-7-8-5-7---------------|
D|-5-----------5-------------|-5-----------6-------------|
A|---------------------------|---------------------------|
E|---------------------------|---------------------------|
 |                           |                           |
e|---------------------------|---------------------------|
B|---------------------------|---------------------------|
G|---------------------------|---------------------------|
D|------1----------3-1-------|------1----------3-1-------|
A|-333----3------------------|-333----3------------------|
E|-------------444-----------|-------------444-----------|

e|---------------------------|---------------------------|
B|---------------------------|---------------------------|
G|---5-7-8-7---5-8-----------|-7-5-----------------------|
D|-5-------------------------|---------------------------|
A|---------------------------|---------------------------|
E|---------------------------|---------------------------|
 |                           |                           |
e|---------------------------|---------------------------|
B|---------------------------|---------------------------|
G|---------------------------|---------------------------|
D|------1----------3-1-------|------1----------3-1-------|
A|-333----3------------------|-333----3------------------|
E|-------------444-----------|-------------444-----------|


e|---------------------------|---------------------------|
B|---------------------------|---------------------------|
G|----10-12-13-12-10---------|----10-12-13-12-10---------|
D|-10----------------10------|-10----------------11------|
A|---------------------------|---------------------------|
E|---------------------------|---------------------------|
 |                           |                           |
e|---------------------------|---------------------------|
B|---------------------------|---------------------------|
G|------1----------3-1-------|------1----------3-1-------|
D|-333----3------------------|-333----3------------------|
A|-------------444-----------|-------------444-----------|
E|---------------------------|---------------------------|

e|---------------------------|---------------------------|
B|---------------------------|---------------------------|
G|---5-7-8-7---5-8-----------|-7-5-----------------------|
D|-5-------------------------|---------------------------|
A|---------------------------|---------------------------|
E|---------------------------|---------------------------|
 |                           |                           |
e|---------------------------|---------------------------|
B|---------------------------|---------------------------|
G|---------------------------|---------------------------|
D|------1----------3-1-------|------1----------3-1-------|
A|-333----3------------------|-333----3------------------|
E|-------------444-----------|-------------444-----------|

e|---------------------------|---------------------------|
B|---------------------------|---------------------------|
G|---------------------------|---------------------------|
D|-6-5-3-6-5-3-6-5-3-6-5-3---|-8-6-5-8-6-5-8-6-5-8-6-5---|
A|---------------------------|---------------------------|
E|---------------------------|---------------------------|
 |                           |                           |
e|---------------------------|---------------------------|
B|---------------------------|---------------------------|
G|-7-------------------------|-8-------------------------|
D|---------------------------|---------------------------|
A|-5-------------------------|-6-------------------------|
E|---------------------------|---------------------------|

e|---------------------------|---------------------------|
B|---------------------------|------9-8------------------|
G|---------------------------|----8----------------------|
D|10-8-6-10-8-6-10-8-6-10-8-6|-10------------------------|
A|---------------------------|---------------------------|
E|---------------------------|---------------------------|
 |                           |                           |
e|---------------------------|---------------------------|
B|---------------------------|---------------------------|
G|-10------------------------|-12------------------------|
D|---------------------------|---------------------------|
A|-8-------------------------|---------------------------|
E|---------------------------|-10------------------------|

e|---------------------------|---------------------------|
B|---------------------------|---8-----------------------|
G|---5-7-8-7-5---5-8---------|-8-------------------------|
D|-5-------------------------|---------------------------|
A|---------------------------|---------------------------|
E|---------------------------|---------------------------|
 |                           |                           |
e|---------------------------|---------------------------|
B|---------------------------|---------------------------|
G|---------------------------|---------------------------|
D|------1----------3-1-------|---------------------------|
A|-333----3------------------|-3-------------------------|
E|-------------444-----------|---------------------------|
Related for X-men Theme tab
Advertisement will be closed in 10 seconds