Song name
# A B C D E F G H I J K L M N O P Q R S T U V W X Y Z

Misc Cartoons - Shakugan No Shana Second Theme tab

Help us improve GuitareTab! Take a short survey!
-------------------------------------------------------------------------------
			     JOINT - Mami Kawada
-------------------------------------------------------------------------------
Tabbed by: xL00NYGAMERx
Email: loonygamer(at)gmail(dot)com

Tuning: Dropped D (D A D G B E)

Notes: This tab includes both Lead and Rhythm. They are displayed separately.


GUITAR I: Lead, Distortion

INTRO I:

|----------------------------------------------------------------|
|----------------------------------------------------------------|
|----------------------------------------------------------------|
|----------------------------------------------------------------|
|---------------5+---------------------------5+------------------|
|-0-2-2--5-2--------5-7-8-7-5-7-0-2-2--5-2--------5-7-8-7-5--0-2-|


|---------------------------------------------------------------|
|---------------------------------------------------------------|
|---------------------------------------------------------------|
|---------------------------------------------------------------|
|----------5+--------------------------5--7--8-7--5--7--2-2-2-2-|
|-2--5-2-------5-7-8-7-5-7-0-2-2--5-2--5--7--8-7--5--7--2-2-2-2-|


INTRO II:

|----------------------------------------------------------|
|----------------------------------------------------------|
|----------------------------------------------------------|
|-------7--7-7-7-2-2-2-2---------------5--5-5-5-7-7-7-7----|
|-5-5-5-5--5-5-5-0-0-0-0-2-2-2-2-5-5-5-3--3-3-3-5-5-5-5----|
|-5-5-5------------------2-2-2-2-5-5-5---------------------|


INTRO III:


|--------------------------------------------------------------------------|
|--------------------------------------------------------------------------|
|-9-9-9-9-9-9-9-9-9-9-9-12--12-11-11-9-9-9-9-9-9-9-9-9-9-9-14--14-12-12----|
|--------------------------------------------------------------------------|
|-7-7-7-7-7-7-7-7-7-7-7-10--10--9--9-7-7-7-7-7-7-7-7-7-7-7-12--12-10-10----|
|--------------------------------------------------------------------------|

|--------------------------------------------------------------------------|
|--------------------------------------------------------------------------|
|-9-9-9-9-9-9-9-9-9-9-9-12--12-11-11-9-9-9-9-9-9-9-9-9-9-9-14--14-12-12----|
|--------------------------------------------------------------------------|
|-7-7-7-7-7-7-7-7-7-7-7-10--10--9--9-7-7-7-7-7-7-7-7-7-7-7-12--12-10-10----|
|--------------------------------------------------------------------------|



VERSE 1:

|-0---------5---------7-------------------------------|
|----3----------3---------5------8--7--8--10----------|
|--------0--------------------5-----------------------|
|-----------------------------------------------------|
|-----------------------------------------------------|
|-----------------------------------------------------|


      PM----------------------|    PM----------------|
|------------------------------------------------------------------|
|------------------------------------------------------------------|
|--0--0-0-0-0-0-0-0-0-0-0-0-0-0-7--0-0-0-0-0-0-0-0-0-0-7--5-----4--|
|------------------------------------------------------------7-----|
|------------------------------------------------------------------|
|------------------------------------------------------------------|


  PM------------------------|
|---------------------------------10-----10-----10-----10-----10----|
|-----------------------------7-8----7-8----7-8----7-8----7-8-------|
|-0-0-0-0-0-0-0-0-0-0-0-0-0-0---------------------------------------|
|-------------------------------------------------------------------|
|-------------------------------------------------------------------|
|-------------------------------------------------------------------|



PRE-CHORUS:

                       PM---|
|------------------------------------------------------------------|
|------------------------------------------------------------------|
|------------------------------------------------------------------|
|------------------------------------------------------0+--0+--0+--|
|-2-0-2--8--X--7---5---0-0-0-----2-0-2--7-8--7---5-----5+--5+--5+--|
|-2-0-2--8--X--7---5---0-0-0-----2-0-2--7-8--7---5-----------------|

                      PM---|
|------------------------------------------------------------------|
|---------------------------------------------------------5-5-5-5--|
|---------------------------------------------------------X-X-X-X--|
|-----------------------------5--5--5-5-5-7--7-7-7--7-7-7-4-4-4-4--|
|-2-0-2--8---7-----5---0-0-0--3--3--3-3-3-5--5-5-5--5-5-5-2-2-2-2--|
|-2-0-2--8---7-----5---0-0-0---------------------------------------|


|----------|
|-5-5-4----|
|-X-X-X----|
|-4-4-4----|
|-2-2-2----|
|----------|


CHORUS:


|------------------------------------------------------------------|
|------------------------------------------------------------------|
|------------------------------------------------------------------|
|-9--9-9-9-9-9-9-5--5-5-5-5-5-5----------------7--7-7-7-7-7-7-9--9-|
|-7--7-7-7-7-7-7-3--3-3-3-3-3-3-5--5-5-5-5-5-5-5--5-5-5-5-5-5-7--7-|
|-------------------------------5--5-5-5-5-5-5---------------------|


|-----------------------------------------------------------|
|-----------------------------------------------------------|
|-----------------------------------------------------------|
|-9-9-9-9-9-5--5-5-5-5-5-5-2--2-2-2-2-2-2-4--4-4-4-4-4-4----|
|-7-7-7-7-7-3--3-3-3-3-3-3-0--0-0-0-0-0-0-2--2-2-2-2-2-2----|
|-----------------------------------------------------------|



POST CHORUS:


  PM---------------|
|------------------------|
|------------------------|
|------------------------|
|------------------------|
|-2-2--2-2--2-2--2-2-----|
|-2-2--2-2--2-2--2-2-----|


|-----------------------------------------------|
|-----------------------------------------------|
|-----------------------------------------------|
|-----------------------------------------------|
|-2--2--5-2--5--7--8-7--5-7-2--2--5-2--0---0----|
|-2--2--5-2--5--7--8-7--5-7-2--2--5-2--0---0----|



VERSE 2:


|--------------------------------------------------------------------------|
|-7--7--8-8-8-8-8-8-8-8-8-8-8-8-8-8-7--7--8-8-8-8-8-8-8-8-8-8-8-8-8-8-7--8-|
|-9--9--9-9-9-9-9-9-9-9-9-9-9-9-9-9-9--9--9-9-9-9-9-9-9-9-9-9-9-9-9-9-9--9-|
|-9--9--9-9-9-9-9-9-9-9-9-9-9-9-9-9-9--9--9-9-9-9-9-9-9-9-9-9-9-9-9-9-9--9-|
|--------------------------------------------------------------------------|
|--------------------------------------------------------------------------|


|----------------------------------------------------------|
|-8-8-8-8-8-8-8-8-8-8-8-8-8-8------------------------------|
|-9-9-9-9-9-9-9-9-9-9-9-9-9-9----12----11----12----14------|
|-9-9-9-9-9-9-9-9-9-9-9-9-9-9----X-----X-----X-----X-------|
|--------------------------------10----9-----10----12------|
|----------------------------------------------------------|


  PM|    PM|    PM|    PM|    PM|    PM|    PM|    PM|    PM|
|---------------------------------------------------------------|
|---------------------------------------------------------------|
|---------------------------------------------------------------|
|---------------------------------------------------------5-5-5-|
|-2-2-2--2-2-2--2-2-2--2-2-2--5-5-5--5-5-5--5-5-5--5-5-5--3-3-3-|
|-2-2-2--2-2-2--2-2-2--2-2-2--5-5-5--5-5-5--5-5-5--5-5-5--------|


  PM|    PM|    PM|
|--------------------------10-----10--|
|----------------------7-8----7-8-----|
|-------------------------------------|
|-5-5-5--5-5-5--5-5-5-----------------|
|-3-3-3--3-3-3--3-3-3-----------------|
|-------------------------------------|


PRE-CHORUS:

                      PM---|
|------------------------------------------------------------------|
|------------------------------------------------------------------|
|------------------------------------------------------------------|
|------------------------------------------------------0+--0+--0+--|
|-2-0-2--8--X--7---5---0-0-0-----2-0-2--7-8--7---5-----5+--5+--5+--|
|-2-0-2--8--X--7---5---0-0-0-----2-0-2--7-8--7---5-----------------|

                      PM---|
|------------------------------------------------------------------|
|---------------------------------------------------------5-5-5-5--|
|---------------------------------------------------------X-X-X-X--|
|-----------------------------5--5--5-5-5-7--7-7-7--7-7-7-4-4-4-4--|
|-2-0-2--8--X--7---5---0-0-0--3--3--3-3-3-5--5-5-5--5-5-5-2-2-2-2--|
|-2-0-2--8--X--7---5---0-0-0---------------------------------------|


|----------|
|-5-5-4----|
|-X-X-X----|
|-4-4-4----|
|-2-2-2----|
|----------|


CHORUS:


|------------------------------------------------------------------|
|------------------------------------------------------------------|
|------------------------------------------------------------------|
|-9--9-9-9-9-9-9-5--5-5-5-5-5-5----------------7--7-7-7-7-7-7-9--9-|
|-7--7-7-7-7-7-7-3--3-3-3-3-3-3-5--5-5-5-5-5-5-5--5-5-5-5-5-5-7--7-|
|-------------------------------5--5-5-5-5-5-5---------------------|


|-----------------------------------------------------------|
|-----------------------------------------------------------|
|-----------------------------------------------------------|
|-9-9-9-9-9-5--5-5-5-5-5-5-2--2-2-2-2-2-2-4--4-4-4-4-4-4----|
|-7-7-7-7-7-3--3-3-3-3-3-3-0--0-0-0-0-0-0-2--2-2-2-2-2-2----|
|-----------------------------------------------------------|



INTERLUDE:


         PM---------------|         PM---------------|
|------------------------------------------------------------|
|------------------------------------------------------------|
|------------------------------------------------------------|
|------------------------------------------------------------|
|-3\-----2-2--2-2--2-2--2-2--8---8--2-2--2-2--2-2--2-2--0--0-|
|-3\-----2-2--2-2--2-2--2-2--8---8--2-2--2-2--2-2--2-2--0--0-|


|-------------------------------------------------------------------|
|-------------------------------------------------------------------|
|-------------------------------------------------------------------|
|-------------------------------5--5-5-5-5-5-5-5-5-5-5-5-5-5-5-9--9-|
|-5-5-5-5-5-5-5-5-5-5-5-5-5-5-5-3--3-3-3-3-3-3-3-3-3-3-3-3-3-3-7--7-|
|-5-5-5-5-5-5-5-5-5-5-5-5-5-5-5-------------------------------------|


|---------------------------------------------------------------|
|---------------------------------------------------------------|
|---------------------------------------------------------------|
|-9-9-9-9-9-9-9-9-9-9-9-9-9-7--7-7-7-7-7-7-7-7-7-7-7-7-7-7-7----|
|-7-7-7-7-7-7-7-7-7-7-7-7-7-5--5-5-5-5-5-5-5-5-5-5-5-5-5-5-5----|
|---------------------------------------------------------------|



FINAL PRE-CHORUS:

                      PM---|
|------------------------------------------------------------------|
|---------------------------------------------------------5-5-5-5--|
|---------------------------------------------------------X-X-X-X--|
|-----------------------------5--5--5-5-5-7--7-7-7--7-7-7-4-4-4-4--|
|-2-0-2--8--X--7---5---0-0-0--3--3--3-3-3-5--5-5-5--5-5-5-2-2-2-2--|
|-2-0-2--8--X--7---5---0-0-0---------------------------------------|


|----------|
|-5-5-4----|
|-X-X-X----|
|-4-4-4----|
|-2-2-2----|
|----------|


FINAL CHORUS:

The last chorus has it's first

|------------------------------------------------------------------|
|------------------------------------------------------------------|
|------------------------------------------------------------------|
|-SILENCE--------------------------------------7--7-7-7-7-7-7-9--9-|
|-Only Vocals Here--------------5--5-5-5-5-5-5-5--5-5-5-5-5-5-7--7-|
|-------------------------------5--5-5-5-5-5-5---------------------|


|-----------------------------------------------------------|
|-----------------------------------------------------------|
|-----------------------------------------------------------|
|-9-9-9-9-9-5--5-5-5-5-5-5-2--2-2-2-2-2-2-4--4-4-4-4-4-4----|
|-7-7-7-7-7-3--3-3-3-3-3-3-0--0-0-0-0-0-0-2--2-2-2-2-2-2----|
|-----------------------------------------------------------|



FINAL MELODY:

|--------------------------------------------------------------------------|
|--------------------------------------------------------------------------|
|-9-9-9-9-9-9-9-9-9-9-9-12--12-11-11-9-9-9-9-9-9-9-9-9-9-9-14--14-12-12----|
|--------------------------------------------------------------------------|
|-7-7-7-7-7-7-7-7-7-7-7-10--10--9--9-7-7-7-7-7-7-7-7-7-7-7-12--12-10-10----|
|--------------------------------------------------------------------------|

|--------------------------------------------------------------------------|
|--------------------------------------------------------------------------|
|-9-9-9-9-9-9-9-9-9-9-9-12--12-11-11-9-9-9-9-9-9-9-9-9-9-9-14--14-12-12----|
|--------------------------------------------------------------------------|
|-7-7-7-7-7-7-7-7-7-7-7-10--10--9--9-7-7-7-7-7-7-7-7-7-7-7-12--12-10-10----|
|--------------------------------------------------------------------------|

|--------------------------------------------------------------------------|
|--------------------------------------------------------------------------|
|-9-9-9-9-9-9-9-9-9-9-9-12--12-11-11-9-9-9-9-9-9-9-9-9-9-9-14--14-12-12----|
|--------------------------------------------------------------------------|
|-7-7-7-7-7-7-7-7-7-7-7-10--10--9--9-7-7-7-7-7-7-7-7-7-7-7-12--12-10-10----|
|--------------------------------------------------------------------------|

|-----------------|
|-----------------|
|-----------------|
|-----------------|
|-2-2---2---2\----|
|-2-2---2---2\----|




GUITAR II: Rhythm, Distortion

INTRO I:

|----------------------------------------------------------------|
|----------------------------------------------------------------|
|----------------------------------------------------------------|
|----------------------------------------------------------------|
|---------------5+---------------------------5+------------------|
|-0-2-2--5-2--------5-7-8-7-5-7-0-2-2--5-2--------5-7-8-7-5--0-2-|


                                                          PM--|
|---------------------------------------------------------------|
|---------------------------------------------------------------|
|---------------------------------------------------------------|
|---------------------------------------------------------------|
|----------5+--------------------------5--7--8-7--5--7--2-2-2-2-|
|-2--5-2-------5-7-8-7-5-7-0-2-2--5-2--5--7--8-7--5--7--2-2-2-2-|


  PM------------------------------------------|
|-----------------------------------------------------------------|
|-----------------------------------------------------------------|
|-----------------------------------------------------------------|
|-------7--7-7-7-2-2-2-2---------------5--5-5-5-7-7-7-7-----------|
|-5-5-5-5--5-5-5-0-0-0-0-2-2-2-2-5-5-5-3--3-3-3-5-5-5-5--2-2-2-2--|
|-5-5-5------------------2-2-2-2-5-5-5-------------------2-2-2-2--|


  PM------------------------------------------|
|-----------------------------------------------------------------|
|-----------------------------------------------------------------|
|-----------------------------------------------------------------|
|-------7--7-7-7-2-2-2-2---------------5--5-5-5-7-7-7-7-----------|
|-5-5-5-5--5-5-5-0-0-0-0-2-2-2-2-5-5-5-3--3-3-3-5-5-5-5--2-2-2-2--|
|-5-5-5------------------2-2-2-2-5-5-5-------------------2-2-2-2--|


INTRO II:


  PM------------------------------------------|
|-----------------------------------------------------------------|
|-----------------------------------------------------------------|
|-----------------------------------------------------------------|
|-------7--7-7-7-2-2-2-2---------------5--5-5-5-7-7-7-7-----------|
|-5-5-5-5--5-5-5-0-0-0-0-2-2-2-2-5-5-5-3--3-3-3-5-5-5-5--2-2-2-2--|
|-5-5-5------------------2-2-2-2-5-5-5-------------------2-2-2-2--|


|--------------------------------------------------------|
|--------------------------------------------------------|
|--------------------------------------------------------|
|-------7--7-7-7-2-2-2-2---------------5--5-5-5-7-7-7-7--|
|-5-5-5-5--5-5-5-0-0-0-0-2-2-2-2-5-5-5-3--3-3-3-5-5-5-5--|
|-5-5-5------------------2-2-2-2-5-5-5-------------------|



VERSE 1:

|-----------------------------------------------------|
|-----------------------------------------------------|
|--------------------------------12---11---12---14----|
|---------------------5----------X----X----X----X-----|
|-2---------5---------3----------10---9----10---12----|
|-2---------5-----------------------------------------|


      PM----------------------|    PM----------------------|
|------------------------------------------------------------------|
|------------------------------------------------------------------|
|------------------------------------------------------------------|
|------------------------------------------------------------------|
|--2--2-2-2-2-2-2-2-2-2-2-2-2-2-5--5-5-5-5-5-5-5-5-5-5-5-5-5-------|
|--2--2-2-2-2-2-2-2-2-2-2-2-2-2-5--5-5-5-5-5-5-5-5-5-5-5-5-5-------|


    PM----------------------|    PM----------------------|
|-------------------------------------------------------------------|
|-------------------------------------------------------------------|
|-------------------------------------------------------------------|
|-5-5-5-5-5-5-5-5-5-5-5-5-5-5-7--7-7-7-7-7-7-7-7-7-7-7-7-7----------|
|-3-3-3-3-3-3-3-3-3-3-3-3-3-3-5--5-5-5-5-5-5-5-5-5-5-5-5-5----------|
|-------------------------------------------------------------------|



PRE-CHORUS:

                       PM---|
|------------------------------------------------------------------|
|------------------------------------------------------------------|
|------------------------------------------------------------------|
|------------------------------------------------------0+--0+--0+--|
|-2-0-2--8--X--7---5---0-0-0-----2-0-2--7-8--7---5-----5---5---5---|
|-2-0-2--8--X--7---5---0-0-0-----2-0-2--7-8--7---5-----------------|

                       PM---|
|------------------------------------------------------------------|
|------------------------------------------------------------------|
|------------------------------------------------------------------|
|---------------------------------------------------------5-5-5-5--|
|-2-0-2--8--X--7---5---0-0-0--2--2--2-2-2-5--5-5-5--5-5-5-3-3-3-3--|
|-2-0-2--8--X--7---5---0-0-0--2--2--2-2-2-5--5-5-5--5-5-5----------|


|-----------------------|
|-----------------------|
|-------Pick Slide------|
|-4-4--/////////////----|
|-2-2--/////////////----|
|-----------------------|


CHORUS:

     PM--------|    PM--------|    PM--------|    PM--------|    PM
|------------------------------------------------------------------|
|------------------------------------------------------------------|
|------------------------------------------------------------------|
|----------------5--5-5-5-5-5-5----------------7--7-7-7-7-7-7-9--9-|
|-2--2-2-2-2-2-2-3--3-3-3-3-3-3-5--5-5-5-5-5-5-5--5-5-5-5-5-5-7--7-|
|-2--2-2-2-2-2-2----------------5--5-5-5-5-5-5---------------------|

  PM------|    PM--------|    PM--------|    PM--------|
|-----------------------------------------------------------|
|-----------------------------------------------------------|
|-----------------------------------------------------------|
|-9-9-9-9-9-5--5-5-5-5-5-5-2--2-2-2-2-2-2-4--4-4-4-4-4-4----|
|-7-7-7-7-7-3--3-3-3-3-3-3-0--0-0-0-0-0-0-2--2-2-2-2-2-2----|
|-----------------------------------------------------------|

     PM--------|    PM--------|    PM--------|    PM--------|    PM
|------------------------------------------------------------------|
|------------------------------------------------------------------|
|------------------------------------------------------------------|
|----------------5--5-5-5-5-5-5----------------7--7-7-7-7-7-7-9--9-|
|-2--2-2-2-2-2-2-3--3-3-3-3-3-3-5--5-5-5-5-5-5-5--5-5-5-5-5-5-7--7-|
|-2--2-2-2-2-2-2----------------5--5-5-5-5-5-5---------------------|

  PM------|    PM--------|    PM--------|    PM--------|
|-----------------------------------------------------------|
|-----------------------------------------------------------|
|-----------------------------------------------------------|
|-9-9-9-9-9-5--5-5-5-5-5-5-2--2-2-2-2-2-2-4--4-4-4-4-4-4----|
|-7-7-7-7-7-3--3-3-3-3-3-3-0--0-0-0-0-0-0-2--2-2-2-2-2-2----|
|-----------------------------------------------------------|


POST CHORUS:


  PM---------------|
|------------------------|
|------------------------|
|------------------------|
|------------------------|
|-2-2--2-2--2-2--2-2-----|
|-2-2--2-2--2-2--2-2-----|


|-----------------------------------------------|
|-----------------------------------------------|
|-----------------------------------------------|
|-----------------------------------------------|
|-2--2--5-2--5--7--8-7--5-7-2--2--5-2--0---0----|
|-2--2--5-2--5--7--8-7--5-7-2--2--5-2--0---0----|



VERSE 2:


      PM----------------------|    PM----------------------|
|------------------------------------------------------------------|
|------------------------------------------------------------------|
|------------------------------------------------------------------|
|------------------------------------------------------------------|
|--2--2-2-2-2-2-2-2-2-2-2-2-2-2-5--5-5-5-5-5-5-5-5-5-5-5-5-5-------|
|--2--2-2-2-2-2-2-2-2-2-2-2-2-2-5--5-5-5-5-5-5-5-5-5-5-5-5-5-------|


    PM----------------------|  
|----------------------------------------------------|
|----------------------------------------------------|
|-------------------------------12---11---12---14----|
|-5-5-5-5-5-5-5-5-5-5-5-5-5-5---X----X----X----X-----|
|-3-3-3-3-3-3-3-3-3-3-3-3-3-3---10---9----10---12----|
|----------------------------------------------------|


  PM|    PM|    PM|    PM|    PM|    PM|    PM|    PM|    PM|
|---------------------------------------------------------------|
|---------------------------------------------------------------|
|---------------------------------------------------------------|
|---------------------------------------------------------5-5-5-|
|-2-2-2--2-2-2--2-2-2--2-2-2--5-5-5--5-5-5--5-5-5--5-5-5--3-3-3-|
|-2-2-2--2-2-2--2-2-2--2-2-2--5-5-5--5-5-5--5-5-5--5-5-5--------|


  PM|    PM|    PM|    PM|    PM|    PM|    PM|
|--------------------------------------------------|
|--------------------------------------------------|
|--------------------------------------------------|
|-5-5-5--5-5-5--5-5-5--7-7-7--7-7-7--7-7-7--7-7-7--|
|-3-3-3--3-3-3--3-3-3--5-5-5--5-5-5--5-5-5--5-5-5--|
|--------------------------------------------------|


PRE-CHORUS:

                      PM---|
|------------------------------------------------------------------|
|------------------------------------------------------------------|
|------------------------------------------------------------------|
|------------------------------------------------------0+--0+--0+--|
|-2-0-2--8--X--7---5---0-0-0-----2-0-2--7-8--7---5-----5+--5+--5+--|
|-2-0-2--8--X--7---5---0-0-0-----2-0-2--7-8--7---5-----------------|

                      PM---|
|------------------------------------------------------------------|
|------------------------------------------------------------------|
|------------------------------------------------------------------|
|-----------------------------5--5--5-5-5-7--7-7-7--7-7-7-4-4-4-4--|
|-2-0-2--8--X--7---5---0-0-0--3--3--3-3-3-5--5-5-5--5-5-5-2-2-2-2--|
|-2-0-2--8--X--7---5---0-0-0---------------------------------------|


|-----------------------|
|-----------------------|
|-------Pick Slide------|
|-4-4--/////////////----|
|-2-2--/////////////----|
|-----------------------|


CHORUS:


     PM--------|    PM--------|    PM--------|    PM--------|    PM
|------------------------------------------------------------------|
|------------------------------------------------------------------|
|------------------------------------------------------------------|
|----------------5--5-5-5-5-5-5----------------7--7-7-7-7-7-7-9--9-|
|-2--2-2-2-2-2-2-3--3-3-3-3-3-3-5--5-5-5-5-5-5-5--5-5-5-5-5-5-7--7-|
|-2--2-2-2-2-2-2----------------5--5-5-5-5-5-5---------------------|

  PM------|    PM--------|    PM--------|    PM--------|
|-----------------------------------------------------------|
|-----------------------------------------------------------|
|-----------------------------------------------------------|
|-9-9-9-9-9-5--5-5-5-5-5-5-2--2-2-2-2-2-2-4--4-4-4-4-4-4----|
|-7-7-7-7-7-3--3-3-3-3-3-3-0--0-0-0-0-0-0-2--2-2-2-2-2-2----|
|-----------------------------------------------------------|

     PM--------|    PM--------|    PM--------|    PM--------|    PM
|------------------------------------------------------------------|
|------------------------------------------------------------------|
|------------------------------------------------------------------|
|----------------5--5-5-5-5-5-5----------------7--7-7-7-7-7-7-9--9-|
|-2--2-2-2-2-2-2-3--3-3-3-3-3-3-5--5-5-5-5-5-5-5--5-5-5-5-5-5-7--7-|
|-2--2-2-2-2-2-2----------------5--5-5-5-5-5-5---------------------|

  PM------|    PM--------|    PM--------|    PM--------|
|-----------------------------------------------------------|
|-----------------------------------------------------------|
|-----------------------------------------------------------|
|-9-9-9-9-9-5--5-5-5-5-5-5-2--2-2-2-2-2-2-4--4-4-4-4-4-4----|
|-7-7-7-7-7-3--3-3-3-3-3-3-0--0-0-0-0-0-0-2--2-2-2-2-2-2----|
|-----------------------------------------------------------|



INTERLUDE:


         PM---------------|         PM---------------|
|------------------------------------------------------------|
|------------------------------------------------------------|
|------------------------------------------------------------| 4x
|------------------------------------------------------------|
|-3\-----2-2--2-2--2-2--2-2--8---8--2-2--2-2--2-2--2-2--0--0-|
|-3\-----2-2--2-2--2-2--2-2--8---8--2-2--2-2--2-2--2-2--0--0-|


|-------------------------------------------------------------------|
|-------------------------------------------------------------------|
|-------------------------------------------------------------------|
|-------------------------------5--5-5-5-5-5-5-5-5-5-5-5-5-5-5------|
|-5-5-5-5-5-5-5-5-5-5-5-5-5-5-5-3--3-3-3-3-3-3-3-3-3-3-3-3-3-3-2--2-|
|-5-5-5-5-5-5-5-5-5-5-5-5-5-5-5--------------------------------2--2-|


|---------------------------------------------------------------|
|---------------------------------------------------------------|
|---------------------------------------------------------------|
|---------------------------------------------------------------|
|-2-2-2-2-2-2-2-2-2-2-2-2-2-2--0-0-0-0-0-0-0-0-0-0-0-0-0-0-0----|
|-2-2-2-2-2-2-2-2-2-2-2-2-2-2--0-0-0-0-0-0-0-0-0-0-0-0-0-0-0----|



FINAL PRE-CHORUS:

                      PM---|
|------------------------------------------------------------------|
|------------------------------------------------------------------|
|------------------------------------------------------------------|
|-----------------------------5--5--5-5-5-7--7-7-7--7-7-7-4-4-4-4--|
|-2-0-2--8--X--7---5---0-0-0--3--3--3-3-3-5--5-5-5--5-5-5-2-2-2-2--|
|-2-0-2--8--X--7---5---0-0-0---------------------------------------|


|-----------------------|
|-----------------------|
|-------Pick Slide------|
|-4-4--/////////////----|
|-2-2--/////////////----|
|-----------------------|


FINAL CHORUS:

The last chorus has it's first 2-3 with no guitar.

                   PM--------|    PM--------|    PM
|------------------------------------------------------------------|
|------------------------------------------------------------------|
|------------------------------------------------------------------|
|-SILENCE--------------------------------------7--7-7-7-7-7-7-9--9-|
|-Only Vocals Here-------------/5--5-5-5-5-5-5-5--5-5-5-5-5-5-7--7-|
|------------------------------/5--5-5-5-5-5-5---------------------|


  PM------|    PM--------|    PM--------|    PM--------|
|-----------------------------------------------------------|
|-----------------------------------------------------------|
|-----------------------------------------------------------|
|-9-9-9-9-9-5--5-5-5-5-5-5-2--2-2-2-2-2-2-4--4-4-4-4-4-4----|
|-7-7-7-7-7-3--3-3-3-3-3-3-0--0-0-0-0-0-0-2--2-2-2-2-2-2----|
|-----------------------------------------------------------|

     PM--------|    PM--------|    PM--------|    PM--------|    PM
|------------------------------------------------------------------|
|------------------------------------------------------------------|
|------------------------------------------------------------------|
|----------------5--5-5-5-5-5-5----------------7--7-7-7-7-7-7-9--9-|
|-2--2-2-2-2-2-2-3--3-3-3-3-3-3-5--5-5-5-5-5-5-5--5-5-5-5-5-5-7--7-|
|-2--2-2-2-2-2-2----------------5--5-5-5-5-5-5---------------------|

  PM------|    PM--------|    PM--------|    PM--------|
|-----------------------------------------------------------|
|-----------------------------------------------------------|
|-----------------------------------------------------------|
|-9-9-9-9-9-5--5-5-5-5-5-5-2--2-2-2-2-2-2-4--4-4-4-4-4-4----|
|-7-7-7-7-7-3--3-3-3-3-3-3-0--0-0-0-0-0-0-2--2-2-2-2-2-2----|
|-----------------------------------------------------------|



FINAL MELODY:

  PM------------------------------------------|
|-----------------------------------------------------------------|
|-----------------------------------------------------------------|
|-----------------------------------------------------------------|
|---------------7--7-7-7-2-2-2-2---------------5--5-5-5-7-7-7-7---|
|-2-2-2-2-5-5-5-5--5-5-5-0-0-0-0-2-2-2-2-5-5-5-3--3-3-3-5-5-5-5---|
|-2-2-2-2-5-5-5------------------2-2-2-2-5-5-5--------------------|

  PM------------------------------------------|
|-----------------------------------------------------------------|
|-----------------------------------------------------------------|
|-----------------------------------------------------------------|
|---------------7--7-7-7-2-2-2-2---------------5--5-5-5-7-7-7-7---|
|-2-2-2-2-5-5-5-5--5-5-5-0-0-0-0-2-2-2-2-5-5-5-3--3-3-3-5-5-5-5---|
|-2-2-2-2-5-5-5------------------2-2-2-2-5-5-5--------------------|

|-----------------|
|-----------------|
|-----------------|
|-----------------|
|-2-2---2---2\----|
|-2-2---2---2\----|



| PM Palm Mute
| /  slide up
| \  slide down
| h  hammer-on
| p  pull-off
| ~  vibrato
| +  harmonic
| x  Mute note
===============================================================================
Related for Shakugan No Shana Second Theme tab