Song name
# A B C D E F G H I J K L M N O P Q R S T U V W X Y Z

Misc Cartoons - Looney Tunes Theme tab

e--12--10--8--10--12--12--12--8--10--10--10--10~-|--10--8--7--8--10--10--10--7--8--8--8--8~-|
B------------------------------------------------|------------------------------------------|
G------------------------------------------------|------------------------------------------|
D------------------------------------------------|------------------------------------------|
A------------------------------------------------|------------------------------------------|
E------------------------------------------------|------------------------------------------|

e------------------------------------------------|--0-----------0--0--0---------------------|
B------------------------------------------------|-----3--1--3-----------1--3--3--3--3~-----|
G---0h2---0h2---0---/7~---0h2---0h2---0---/9~----|------------------------------------------|
D------------------------------------------------|------------------------------------------|
A------------------------------------------------|------------------------------------------|
E------------------------------------------------|------------------------------------------|

e------------------------------------------------| End abruptly.
B------------------------------------------------| And that's all folks!
G--2--2--2----7---9----12------------------------|
D--0--0--0----5---7----10------------------------| Any comments, send to
A--------------------------------10--------------| headbanger1547 [at] gmail.com
E---------------------------------8--------------|
Tap to rate this tab
 
# A B C D E F G H I J K L M N O P Q R S T U V W X Y Z