Song name
# A B C D E F G H I J K L M N O P Q R S T U V W X Y Z

Misc Cartoons - South Park - Sexual Harassment Panda tab

South Park
Sexual Harassment Panda

Tabbed By Jimmy Crypt

E----2---2---2---2----------------------|
B----3---3---3---3----------------------|
G----2---2---2---2----------------------|
D--0-------0-----------------------2-0--|
A------0-------0----0--0-0--0-2-4-------|
E---------------------------------------|

E----2---2---2---2----------------------|
B----3---3---3---3----------------------|
G----2---2---2---2----------------------|
D--0-------0-----------------------2-0--|
A------0-------0----0--0-0--0-2-4-------|
E---------------------------------------|

E----2---2---2---2----3---3---3--3------|
B----3---3---3---3----2---2---2--2------|
G----2---2---2---2----2---2---2--2------|
D--0-------0--------2-------2-----------|
A------0-------0--------0------0--------|
E---------------------------------------|

E----2---2---2---2----------------------|
B----3---3---3---3----------------------|
G----2---2---2---2----------------------|
D--0-------0-----------------------2-0--|
A------0-------0----0--0-0--0-2-4-------|
E---------------------------------------|

Who lives in the east 'neath the willow tree
Sexual Harassment Panda!
Who explains sexual harassment to you and me
Sexual Harassment Panda!
Don't say that
Don't touch there
Don't be nasty says the silly bear
He's come to tell you what's right and wrong
Sexual Harassment Panda!
Tap to rate this tab
# A B C D E F G H I J K L M N O P Q R S T U V W X Y Z