Song name
# A B C D E F G H I J K L M N O P Q R S T U V W X Y Z

Misc Cartoons - Gintama - Episode Title Theme tab

Well, this is the guitar part of the Episode Title Theme...you know, this thingy when 
episode's title's shown...w/e
I'm quite sure it's correct, so have fun playing it!

v = vibrato

e-15p12p11--12p11-----------------------------------|
b----------------15--12p11--------------------------|
g-------------------------14-----12--12~--14~-------|
d----------------------------------14----------14~--|
a---------------------------------------------------|
E---------------------------------------------------|
                                      v    v    v

alternative

e-15p12p11--12p11p10--7p6p5--3p0h3~--5~--0~--|
b--------------------------------------------|
g--------------------------------------------|
d--------------------------------------------|
a--------------------------------------------|
E--------------------------------------------|
                                 v   v   v
Tap to rate this tab
# A B C D E F G H I J K L M N O P Q R S T U V W X Y Z