Guitaretab - guitar tabs
Song name
# A B C D E F G H I J K L M N O P Q R S T U V W X Y Z

Misc Cartoons - Gintama - Crossfade Theme tab

Now, this is the theme of the Gintama crossfades.

Have fun playing!
[ Tab from: http://www.guitaretab.com/m/misc-cartoons/115809.html ]
guitar 1
e----------------------------|
b----------------------------|
g----------------------------|
d-5~--8~--11~--11-10-8-5~--5-|
a-5~--8~--11~--11-10-8-5~--5-|
E-3~--6~---9~---9--8-6-3~--3-|


guitar 2
e----------------------------------b15\-|
b---------------------------------------|
g-b12---b14---b15---15-14-12------------|
d----------------------------b14--------|
a---------------------------------------|
E---------------------------------------|
Related for Gintama - Crossfade Theme tab
Advertisement will be closed in 10 seconds