Song name
# A B C D E F G H I J K L M N O P Q R S T U V W X Y Z

Misc Cartoons - A World Without Danger Theme tab

Help us improve GuitareTab! Take a short survey!
Tabalature for "A World Without Danger" ("Une Monde Sans Danger") Melody section (TV Theme Only)
Tabbed by CodeXANA, 19:21, 25/9/08
98.5% Accurate, Or better! Chords given too!
Dashes mark 1/4 beat(---- indicates 1 beat). 4/4 moderate (100).

Intro:
 F                C5               Dm               Bb
|----8---6---5---|----8---6---5---|----8---6---5---|----8---6-5-----|
|6-6---6---6---6-|--6---6---6---6-|--6---6---6---6-|--6---6-----6-8-|
|----------------|----------------|----------------|----------------| X2 
|----------------|----------------|----------------|----------------|
|----------------|----------------|----------------|----------------|
|----------------|----------------|----------------|----------------|

Bridge:
  F5               C5               Dm               Bb5
E|----------------|----------------|----------------|----------------|
B|----------------|----------------|----------------|----------------|
G|----------------|----------------|----------------|----------------|
D|----------------|----------------|----------------|----------------|
A|88-88-88-88-888>|33-33-33-33-333<|55-55-55-55-555>|1(let ring)--<6-|
E|----------------|----------------|----------------|----------------|

Verse (Guitar 1. Guitar 2 plays Intro Section x4)
 F5               C5                   D5               Bb5
|----------------|----------------| 1.|----------------|----------------| 
|--6-6-----6-6---|--6-6---5---5---|   |--6-6-----6-6---|--6-6---6-5-----|
|5-------5-------|5---------5-----|   |5-------5-------|5-----------5---|
|----------------|----------------|   |----------------|----------------|
|----------------|----------------|   |----------------|----------------|
|----------------|----------------|   |----------------|----------------|

   D5               Bb5
2.|----------------|----------------|
  |6(let ring)---6-|11-10-8---6-6---|
  |----------------|----------------|
  |----------------|----------------|
  |----------------|----------------|
  |----------------|----------------|

Chorus: (Hard to tab a rythym for this part, I'm afraid!)
 F5               C5               D5               Bb5 
|8-6-5-----------|8-6-5-------5---|8-6-5-----------|8-6-5-------5---|
|------8-5-6-8-3-|------6-6-8---6-|------8-5-6-8-3-|------6-6-8---6-|
|----------------|----------------|----------------|----------------|
|----------------|----------------|----------------|----------------|
|----------------|----------------|----------------|----------------|
|----------------|----------------|----------------|----------------|

The chorus (shifted up 12 frets) doubles as an outro.
E|20-18-17----------------|20-18-17----------17----| X2
B|---------20-17-18-20-15-|---------18-18-20----18-|
This is the playing order of the TV Theme Version (Code Lyoko).
Intro X2
Bridge X1
Verse Riff + Part 1 X1
Verse Riff + Part 2 X1
Chorus X1
Chorus (shift) x1

Chords
  F5     C5   D5    Bb5
|-----|-----|-----|-----|
|-----|-----|-----|-----|
|--10-|--5--|--7--|--3--|
|--10-|--5--|--7--|--3--|
|--8--|--3--|--5--|--1--|
|-----|-----|-----|-----|

Enjoy playing this piece, and if you have any queries, contact me at: glenbowl2@aol.com

oddoneout@kadic.myfreeforum.org
kadicacademy.wetpaint.com
Related for A World Without Danger Theme tab