Guitaretab - guitar tabs
Song name
# A B C D E F G H I J K L M N O P Q R S T U V W X Y Z

Misc Cartoons - Pokemon Center Theme tab

Pokémon Center Theme

Standard Tuning (E,A,D,G,B,e)

This is the song played when in the pokemon center.

e----------17--15--14--------|
B-15----15------------17-14--|
G----14----------------------|
D----------------------------|
A----------------------------|
E----------------------------|

e----------14------------14--|
B-14----14-----17--14-15-----|
G----14----------------------|
D----------------------------|
A----------------------------|
E----------------------------|

e----------17--15--14--------|
B-15----15------------17-14--|
G----14----------------------|
D----------------------------|
A----------------------------|
E----------------------------|
[ Tab from: http://www.guitaretab.com/m/misc-cartoons/117722.html ]
e----------14----------------|
B-14----14-----17--14-15-----|
G----14----------------------|
D----------------------------|
A----------------------------|
E----------------------------|

e-14--17--15-17-15-14--------|
B---------------------17-----|
G----------------------------|
D----------------------------|
A----------------------------|
E----------------------------|

e-----15--14-15-14-----------|
B-17---------------17-15-----|
G----------------------------|
D----------------------------|
A----------------------------|
E----------------------------|

e-14--17--15-14-15-17-19-----|
B----------------------------|
G----------------------------|
D----------------------------|
A----------------------------|
E----------------------------|

e-17--15-14-15--14-15-14-------|
B------------------------17-15-|
G------------------------------|
D------------------------------|
A------------------------------|
E------------------------------|
Related for Pokemon Center Theme tab
Advertisement will be closed in 10 seconds