Song name
# A B C D E F G H I J K L M N O P Q R S T U V W X Y Z

Misc Cartoons - Mission Hill Opening Theme tab

-----------------------|
-----------------------|
-----------------------|
-5--5--5-5-5-5-5-------|
-3--3--3-3-3-3-3-------|
-----------------------|
GTR1

---0-1-3---------0-1-0-|
-1---------1-1-1-------|
-----------------------|
-----------------------|
-----------------------|
-----------------------|
Tap to rate this tab
# A B C D E F G H I J K L M N O P Q R S T U V W X Y Z