Song name
# A B C D E F G H I J K L M N O P Q R S T U V W X Y Z

Misc Cartoons - South Park - Kyle Suck My Balls tab

E|--------------------------------------------------------------------|
B|--------------------------------------------------------------------|
G|---7--7----7------9-----------11------------7---------14--14---14---|
D|---7--7----7(X8)--9--(X8)-----11--(X8)------7--(X8)---x---x----x(X8)|
A|---5--5----5------7-----------9-------------5---------12--12---12---|
D|---5--5----5------7-----------9-------------5-----------------------|

E|--------------------------------------------------------------------|
B|--------------------------------------------------------------------|
G|-16--16---16-------12--12---12------14--14---14------11--11---11----|
D|-x---x----x--(X8)--x---x----x-(X8)--x---x----x-(X8)--x---x----x(X8)-|
A|-14--14---14-------10--10---10------12--12---12------9---9----9-----|
D|--------------------------------------------------------------------|

E|--------------------------------------|
B|--------------------------------------|
G|-9--9---9--------11--11---11-------11~|
D|-x--x---x--(X8)--x---x----x--(X8)--x~-|
A|-7--7---7--------9---9----9--------9~-|
D|--------------------------------------|



(Verse)
                                    X2
E|------------------------------------|
B|--5---------------------------------|
G|--3--------5--------7--------9------|
D|--3--(X8)--3--(X8)--5--(X8)--7--(X8)|
A|--3--------3--------5--------7------|
D|--3--------3--------5--------7------|

                                    X2
E|-------------------------------------|
B|--7----------------------------------|
G|--5--------7--------9--------11------|
D|--5--(X8)--5--(X8)--7--(X8)--9--(X8)-|
A|--5--------5--------7--------9-------|
D|--5--------5--------7--------9-------|

                              X2
E|------------------------------|
B|------------------------------|
G|------------------------------|
D|--11-------14-------9--------7|
A|--9--(X6)--12-(X8)--9--(X6)--5|
D|--9--------12-------7--------5|





(Chorus)

E|--------------------------------------------------------------------|
B|--------------------------------------------------------------------|
G|---7--7----7------9-----------11------------7---------14--14---14---|
D|---7--7----7(X8)--9--(X8)-----11--(X8)------7--(X8)---x---x----x(X8)|
A|---5--5----5------7-----------9-------------5---------12--12---12---|
D|---5--5----5------7-----------9-------------5-----------------------|

E|--------------------------------------------------------------------|
B|--------------------------------------------------------------------|
G|-16--16---16-------12--12---12------14--14---14------11--11---11----|
D|-x---x----x--(X8)--x---x----x-(X8)--x---x----x-(X8)--x---x----x(X8)-|
A|-14--14---14-------10--10---10------12--12---12------9---9----9-----|
D|--------------------------------------------------------------------|

E|--------------------------------------|
B|--------------------------------------|
G|-9--9---9--------11--11---11-------11~|
D|-x--x---x--(X8)--x---x----x--(X8)--x~-|
A|-7--7---7--------9---9----9--------9~-|
D|--------------------------------------|


(Verse)
                                    X2
E|------------------------------------|
B|--5---------------------------------|
G|--3--------5--------7--------9------|
D|--3--(X8)--3--(X8)--5--(X8)--7--(X8)|
A|--3--------3--------5--------7------|
D|--3--------3--------5--------7------|

                                    X2
E|-------------------------------------|
B|--7----------------------------------|
G|--5--------7--------9--------11------|
D|--5--(X8)--5--(X8)--7--(X8)--9--(X8)-|
A|--5--------5--------7--------9-------|
D|--5--------5--------7--------9-------|

                                    X2
E|---------------------------------------|
B|---------------------------------------|
G|---------------------------------------|
D|--11-------14-------9--------7-------7~|
A|--9--(X6)--12-(X8)--9--(X6)--5-(X8)--5~|
D|--9--------12-------7--------5-------5~|


(Solo)

E|---------9---9---9---9----11---11---11---11----12---12---12---12---|
B|--9--11----0---0---0---0-----0----0----0----0-----0----0----0----0-|
G|-------------------------------------------------------------------|
D|-------------------------------------------------------------------|
A|-------------------------------------------------------------------|
D|-------------------------------------------------------------------|

E|--11----11---11---11----9---9---9---9----11---11---11---11---------|
B|-----0-----0----0----0----0---0---0---0-----0----0----0----0-------|
G|-------------------------------------------------------------------|
D|-------------------------------------------------------------------|
A|-------------------------------------------------------------------|
D|-------------------------------------------------------------------|



E|--14----14---14---14----12---12---12---12----11---11---11---11-----|
B|-----0-----0----0----0-----0----0----0----0-----0----0----0----0---|
G|-------------------------------------------------------------------|
D|-------------------------------------------------------------------|
A|-------------------------------------------------------------------|
D|-------------------------------------------------------------------|

E|--9---9---9---9----12---12---12---12----11---11---11---11----------|
B|----0---0---0---0-----0----0----0----0-----0----0----0----0--------|
G|-------------------------------------------------------------------|
D|-------------------------------------------------------------------|
A|-------------------------------------------------------------------|
D|-------------------------------------------------------------------|

E|--9---9---9---9----11---11---11-----11~----|
B|----0---0---0---0-----0----0----0---0~-----|
G|-------------------------------------------|
D|-------------------------------------------|
A|-------------------------------------------|
D|-------------------------------------------|

(Outro)

E|-------------------------------------------------------------------------|
B|-------------------------------------------------------------------------|
G|--9-------9--9--9----11------11-11-11---9------9--9--9----9-------9--9--9|
D|--7-(X6)--7--7--7----9--(X6)-9--9--9----7(X6)--7--7--7----7-(X6)--7--7--7|
A|--5-------5--5--5----7-------7--7--7----5------5--5--5----7-------7--7--7|
D|----------------------------------------------------------7-------7--7--7|

E|-------------------------------------------------------------------------|
B|--5-------5--5-----6-------6--6------5------5--5-------------------------|
G|--5-------5--5-----5-------5--5------5------5--5----11------11--11-------|
D|--3-(X6)--3--3-----3-(X6)--3--3------3-(X6)-3--3----11(X6)--11--11-------|
A|--3-------3--3-----3-------3--3------3------3--3----9-------9---9--------|
D|--3-------3--3-----3-------3--3------3------3--3-------------------------|
                                     (This last tab column repeat twice) X2
E|-------------------------------------------------------------------------|
B|-------------------------------------------------------------------------|
G|--14-------14--14-----11-------11--11-------9------9--9----7------7--7--7~|
D|--12-(X6)--12--12-----11-(X6)--11--11-------9-(X6)-9--9----7-(X8)-7--7--7~|
A|--12-------12--12-----9--------9---9--------7------7--7----5------5--5--5~|
D|------------------------------------------------------------------------5~|
Tap to rate this tab
 
# A B C D E F G H I J K L M N O P Q R S T U V W X Y Z