Song name
# A B C D E F G H I J K L M N O P Q R S T U V W X Y Z

Misc Cartoons - Jiros Theme tab

-------------------------------------------------------------------------------
		                Jiro's Theme - Kikaider
-------------------------------------------------------------------------------
Tabbed by:Xaxu
Tuning:Standard


Beautifully sad song.
Originally tabbed by Sj.
The timing for this video is here = http://www.youtube.com/watch?v=hd7uobUP8Vs

Guitar 1 plays melody and is on top.
Guitar 2 plays rhythm and is on bottom.



G2  0:01 - 0:11
e|------1---0-----5--1-----1---0--1-----1---0-----5--1-----|
B|------3---3---3----3-----3---3--3-----3---3---3----3--3--|
G|----2-----2------------2-----2------2-----2-----------2--|
D|--0-----0---0--------0-----0------0-----0---0---------0--|
A|---------------------------------------------------------|
E|---------------------------------------------------------|


  0:12 - 0:25
e|-------------------------/8-----|
B|--/10--8---8----/10--8------10--|
G|---------9---10--------9--------|
D|--------------------------------|
A|--------------------------------|
E|--------------------------------|

e|------1---0-----5--1-----1---0--1-----1---0-----5--1--|
B|------3---3---3----3-----3---3--3-----3---3---3----3--|
G|----2-----2------------2-----2------2-----2-----------|
D|--0-----0---0--------0-----0------0-----0---0---------|
A|------------------------------------------------------|
E|------------------------------------------------------|


  0:26 - 0:35
e|---------------------------------------|
B|--/10--8----------------------8--10----|
G|---------9--9h10--7--7--9--10-------7--|
D|---------------------------------------|
A|---------------------------------------|
E|---------------------------------------|

e|------1---0--1------1---0--1--5--1-----1---0--1--|
B|------3---3--3------3---3--3-----3-----3---3--3--|
G|----2-----2-------2-----2--2---------2-----2--2--|
D|--0-----0----------------------------------------|
A|----------------3-----3------------2-----2-------|
E|-------------------------------------------------|


  0:36 - 0:49
e|----------8--10--------------------------|
B|--/10--8--8--10------/10--8--------------|
G|----------9--10--10--/10--9--9---10--10--|
D|-----------------------------10--10--12--|
A|-----------------------------------------|
E|-----------------------------------------|

e|------1---0--1--5--1-----1---0--1-----1---0--1--5--3-----1---0-----5--1--|
B|------3---3--3-----3-----3---3--3-----3---3--3-----------3---3---3----3--|
G|----2-----2--2---------2-----2--2---2------------------2-----2-----------|
D|-----------------------------------------------------0-----0---0---------|
A|--3-----3------------2-----2------1-----1--------------------------------|
E|-------------------------------------------------------------------------|


  0:50 - 1:01
e|--------------8-------------------------|
B|--/10--8------8--10--/10--8-------------|
G|--/10--9--9------10--/10--9--9---10--7--|
D|----------10-----------------10--10--8--|
A|----------------------------------------|
E|----------------------------------------|

e|------1---0--1-----1---0-----5--1-----1---0--1-|
B|------3---3--3-----3---3---3----3-----3---3--3-|
G|----2-----2------2-----2------------2-----2----|
D|--0-----0------0-----0---0--------0-----0------|
A|-----------------------------------------------|
E|-----------------------------------------------|


  1:02 - 1:12
e|--------------------------------8--10--5--|
B|--------------8--10-----/10--8--8--10--6--|
G|--/7--9---10--9--10--7--/10--9---------7--|
D|--/8--10--10---------8--------------------|
A|------------------------------------------|
E|------------------------------------------|

e|------1---0--1--5--1-----1---0--1-----1---0--1--5--1------1---5--1--|
B|------3---3--3-----3-----3---3--3-----3---3--3-----3------3---3--3--|
G|----2-----2--2---------2-----2--2---2-------------------2-----------|
D|--------------------------------------------------------------------|
A|--3-----3------------2-----2------1-----1-------------1-----1-------|
E|--------------------------------------------------------------------|


Any comments or questions go to Xaxu at www.Ultimate-Guitar.com


| /  slide up
| \  slide down
| h  hammer-on
| p  pull-off
| ~  vibrato
| +  harmonic
| x  Mute note
===============================================================================
Tap to rate this tab
# A B C D E F G H I J K L M N O P Q R S T U V W X Y Z