Song name
# A B C D E F G H I J K L M N O P Q R S T U V W X Y Z

Misc Cartoons - Noir - Melodie tab

The song that the watch plays throughout the Noir series. Should be 100% correct.

4/4
|-------|----------5-|-7--12--10--8-|-7-|-(7)-7-|-5--7--8--5----|
|-------|-5--7--8----|-8------------|-7-|-(7)---|-5-------------|
|-----5-|------------|--------11----|---|-------|-5-------------|
|-------|------------|--------------|---|-------|---------------|
|-------|------------|--------------|---|-------|---------------|
|-------|------------|--------------|---|-------|---------------|


                           3/4      4/4
|-5------5--|-------------|--------|-8--7----5--|
|-5---------|-5--7--8--5--|-7------|-5--5-8-----|
|-5---------|-5-----------|-7------|----7-------|
|-----------|-7-----------|-9------|------------|
|-----------|-------------|--------|------------|
|-----------|-------------|--------|------------|


                               3/4  4/4
|-7--5-----5--|-7--12--10--8--|-7--|-(7)--7-|-5--7--8----|
|-8-----8-----|-8------10-----|-8--|-(8)----|-5--------8-|
|-------------|-9------11-----|----|--------|-5----------|
|-------------|---------------|----|--------|------------|
|-------------|---------------|----|--------|------------|
|-------------|---------------|----|--------|------------|


|------|-------------|------|-----|
|-8--8-|-5--7--8--5--|-7----|-----|
|-7----|-5-----------|-7--7-|-9---|
|------|-------------|-9----|-9---|
|------|-------------|------|-----|
|------|-------------|------|-----|

Tap to rate this tab
# A B C D E F G H I J K L M N O P Q R S T U V W X Y Z