Song name
# A B C D E F G H I J K L M N O P Q R S T U V W X Y Z

Misc Cartoons - K-on - Light And Fluffy Time tab

-----------------------------------------------------------------
Light and Fluffy Time - K-ON!
-----------------------------------------------------------------
Tabbed by: NightKidX	
Email: skremix@gmail.com	

Tuning: Standard


This tab is for my version of the song that I played on youtube.
http://www.youtube.com/watch?v=NSM22VOgVn4


| /  slide up
| \  slide down
| h  hammer-on
| p  pull-off
| ~  vibrato
| +  harmonic
| x  Mute note
| *  Palm Mute


Intro

e|---------------------------------------------------|
B|---------------------------------------------------|
G|-----------99999-99--------------------------------|
D|-----------99999-99-777-99999----------------------| repeat x4
A|-----------77777-77-777-99999----------------------|
E|--------------------555-77777----------------------|


Verse

       ****       ****       ***                        ****        ****        ****
e|-----------------------------------------------------------------------------------------|
B|-----------------------------------------------------------------------------------------|
G|--9--9999--9------------9--999--9--8/9-9-x-9\7--7--6--6666--6----------------------------|
D|--9--9999--9-7--7777--7-9--999--9--8/9-9-x-9\7--7--6--6666--6--7--7777--7--9--9999-9-x-9-|
A|--7--7777--7-7--7777--7-7--777--7--6/7-7-x-7\5--5--4--4444--4--7--7777--7--9--9999-9-x-9-|
E|-------------5--5555--5----------------------------------------5--5555--5--7--7777-7-x-7-|

      

Pre Chorus

e|-----------5--5--5----------------4--4--4------4---44------------5-554--xxx|
B|-----------5--5--5----------------4--4--4------5---55------------5-554--xxx|
G|-----------6--6--6----------------4--4--4------6---66-7---77-9----------xxx|
D|--7-7-777--7--7--7--7766--6--666--6--6--6--666-6---66-7---77-9-------------|
A|--7-7-777--7--7--7--7766--6--666--6--6--6--666-6---44-5---55-7-------------|
E|--5-5-555--5--5--5--5544--4--444--4--4--4--444-4---------------------------|


                                                                   **   **
e|-----------5--5--5---------------44444444------------------------------------|
B|-----------5--5--5---------------55555555------------------------------------|
G|-----------6--6--6---------------66666666------------------------------------|
D|--7-7-777--7--7--7--7766-6-6666--66666666--44444444--88888888--9-99-9-99-9---|
A|--7-7-777--7--7--7--7766-6-6666--44444444--44444444--88888888--9-99-9-99-9---|
E|--5-5-555--5--5--5--5544-4-4444------------22222222--66666666--7-77-7-77-7---|



Chorus

e|-----------------------------------------------------------------------------
B|-----------------------------------------------------------------------------
G|--44--6-8--99999999----------------------------------------------------------
D|--xx--x-x--99999999--77777777--99999999--1010101010101010--1111111111111111--
A|--22--4-6--77777777--77777777--99999999--1010101010101010--1111111111111111--
E|---------------------55555555--77777777---8-8-8-8-8-8-8-8---9-9-9-9-9-9-9-9--

---------------------------------|
---------------------------------|
------------1111111111111111-----|
--77777777--1111111111111111-----|
--77777777---9-9-9-9-9-9-9-9-----|
--55555555-----------------------|


e|----------------------------------------------------------------------------------------|
B|----------------------------------------------------------------------------------------|
G|-----44--6-8--99999999------------------------------------------------------------------|
D|--xx-xx--x-x--99999999--77777777--99999999--1010101010101010--1111111111111111---7---9--|
A|--xx-22--4-6--77777777--77777777--99999999--1010101010101010--1111111111111111---7---9--|
E|--xx--------------------55555555--77777777---8-8-8-8-8-8-8-8---9-9-9-9-9-9-9-9---5---7--|


Outro

e|---------------------------------------------------|
B|---------------------------------------------------|
G|-----------99999-99--------------------------------|
D|-----------99999-99-777-99999----------------------| repeat x3
A|-----------77777-77-777-99999----------------------|
E|--------------------555-77777----------------------|


e|---------------------------------------------------|
B|---------------------------------------------------|
G|-----------99999-99----------9---------------------|
D|-----------99999-99-77---99--9---------------------| 
A|-----------77777-77-77---99--7---------------------|
E|--------------------55---77------------------------|


Here you can improvise however you want but this is how I played it.

e|---------------------------------------------------------------|
B|---5-----------------------------------------------------------|
G|---7b-----9-7-----------------------------9--------------------|
D|--------------9-8-7-----------xx----------9--------------------|
A|--------------------10-7~~~~--xx----------7--------------------|
E|------------------------------xx-/17\1----7--------------------|

And that's it! I hope this helps.

Tap to rate this tab
# A B C D E F G H I J K L M N O P Q R S T U V W X Y Z