Song name
# A B C D E F G H I J K L M N O P Q R S T U V W X Y Z

Misc Cartoons - Sailor Moon Theme tab

-------------------------------------------------------------------------------
			     Sailor Moon Theme Solo
-------------------------------------------------------------------------------
Tabbed by: Le_Bunny

Tuning: Standard

e|---------------------------------------------------------------------------|
B|---------------------------------------------------------------------------|
G|--5~~---5s7--8s7--3s5~---12-10p8h10-8-7--3s5~---5--7--8--10----------------|
D|---------------------------------------------------------------------------|
A|---------------------------------------------------------------------------|
E|---------------------------------------------------------------------------|

e|---------------------------------------------------------------------------|
B|---------------------------------------------------------------------------|
G|---------------------------------------------------------------------------|
D|---------1-0-----0-6-5-----------------------------------------------------|
A|-------------0-1-----------------------------------------------------------|
E|--3-2-3--------------------------------------------------------------------|


Was watching the series and wondered how the solo went- turns out it's quite easy. 
It's my first go at tabbing, so don't slay me. Feel free to further embellish as you please.
Tap to rate this tab
 
# A B C D E F G H I J K L M N O P Q R S T U V W X Y Z